» » »

R.E.M., Uberlin Bass tabs (ver.1)

Artists:  A B C D E F G H I J K L M N O P Q R S T U V W X Y Z # 

Uberlin Bass tabs (ver.1)

R.E.M. Tabs
Rating:
0/5 (0 votes)
Uberlin lessons Tabs too difficult? Try these video lessons and learn fast
                -------------------------------------------------------------------------------
                             UBerlin - REM
-------------------------------------------------------------------------------

Tuning: Standard

  intro-         verse-1
           Hey now, take your pills
G|-------|-----------------------------------------------|
D|-------|-----------------------------------------------|
A|-------|-10-------------78-108----10--------87-8----8--|
E|-------|------56---10---------108------56--------------|


  Crash land, no illusions
G|----------------------------------------------|
D|----------------------------------------------|
A|-10-------------78-108----10-------87-8----8--|
E|------56---10---------108------56-------------|

  chorus-
  I know,I know, I know
G|----------------------------------------------------|
D|----------------------------------------------------|
A|-6-6-6-6-4-5--5----6-6-6-6-7-8-8-8-8-5-6-6-65-------|
E|-------------5---------------------------------6--6-|


  A star into a meteor tonight
G|----------------------------------------------------------------|
D|----------------------------------------------------------------|
A|----------87-8--8-6-6-65---------------------6-6-65-------------|
E|-109--10-----------------6---6--109-10--10----------6-6-109--10-|

  the day becomes the night
G|----------------------------------|
D|----------------------------------|
A|-87-8-8-6-6-65--------------------|
E|---------------6---6--109-10--10--|

  verse-2
  Hey now, take the Uban
G|------------------------------------------------|
D|------------------------------------------------|
A|-10-------------78-108----10--------87-8-----8--|
E|------56---10---------108------56---------------|


   Hey now, count a thousand, million people
G|----------------------------------------------|
D|----------------------------------------------|
A|-10-------------78-108----10-------87-8----8--|
E|------56---10---------108------56-------------|

  chorus-
  I know,I know, I know
G|----------------------------------------------------|
D|----------------------------------------------------|
A|-6-6-6-6-4-5--5----6-6-6-6-7-8-8-8-8-5-6-6-65-------|
E|-------------5---------------------------------6--6-|


  a star into a meteor tonight
G|----------------------------------------------------------------|
D|----------------------------------------------------------------|
A|----------87-8--8-6-6-65---------------------6-6-65-------------|
E|-109--10-----------------6---6--109-10--10----------6-6-109--10-|


  the day becomes the night
G|----------------------------------|
D|----------------------------------|
A|-87-8-8-6-6-65--------------------|
E|---------------6---6--109-10--10--|


  ( interlude )
G|-------------------------------------------------|
D|-------------------------------------------------|
A|-4-4-4-4-----------5-6-6-6-6-----------3-4-4-4-4-|
E|---------3-4-4-4-4-----------5-6-6-6-6-----------|

 ( interlude )
G|------------------------------|
D|------------------------------|
A|----------5-6-6-6-6-----------|
E|3-4-4-4-4-----------5-6-6-6-6-|


 verse-3
 I don't mind repeating
G|-----------------------------------------------|
D|-----------------------------------------------|
A|-10-------------78-108----10--------87-8----8--|
E|------56---10---------108------56--------------|


  Hey man, tell me something
G|----------------------------------------------|
D|----------------------------------------------|
A|-10-------------78-108----10-------87-8----8--|
E|------56---10---------108------56-------------|

 chorus-outro
 I know,I know, I know
G|----------------------------------------------------|
D|----------------------------------------------------|
A|-6-6-6-6-4-5--5----6-6-6-6-7-8-8-8-8-5-6-6-65-------|
E|-------------5---------------------------------6--6-|

  a star into a meteor tonight
G|----------------------------------------------------------------|
D|----------------------------------------------------------------|
A|----------87-8--8-6-6-65---------------------6-6-65-------------|
E|-109--10-----------------6---6--109-10--10----------6-6-109--10-|


   the day becomes the night
G|---------------------------------------|
D|---------------------------------------|
A|-87-8-8-6-6-65----------------------10-|
E|---------------6---6--109-10--10-------|
            
Submit corrections

comments powered by Disqus
↑ Back to top | R.E.M. Bass for Uberlin. Lyrics for acoustic guitar and electric guitar. Tablatures and chords are parodies/interpretations of the original songs. You may use it for private study, scholarship, research or language learning purposes only