» » »

Uberlin Tabs (ver.1)

Artists:  A B C D E F G H I J K L M N O P Q R S T U V W X Y Z # 

Uberlin Tabs (ver.1)

R.E.M.
Rating:
0/5 (0 votes)

Hard to play? Try these video lessons and learn fast.
                ------------------------------------------------------------------------
                UBERLIN - REM
------------------------------------------------------------------------

Intro/Transition Riff:
e|------------|
B|-3-1--------|
G|----3-2-0---|
D|------------|
A|------------|
E|------------|

Verse
Guitar 1
e|-3-------------1----------|
B|-3-------------3-3--------|
G|-3-3-2---------2--2-------|
D|-5----3--------0---3------|
A|-5------------------------|
E|-3------------------------|

Guitar 2
e|-3--3---1--1---1--1---1--1---|
B|-3---3--3---3--3---3--1---1--|
G|-3----0-3----0-2----0-2----0-|
D|-5-5----3-3----0-0----3-3----|
A|-5------1-------------3------|
E|-3------1-------------1------|

Guitar 1
e|-3-------------1----|
B|-3-------------1----|
G|-3-3-2---------2----|
D|-5----3--------3----|
A|-5-------------3----|
E|-3-------------1----|

Guitar 2
e|-3--3---1--1---1--1--1--1---|
B|-3---3--3---3--1---1--1--1--|
G|-3----0-3----0-2----0--0--0-|
D|-5-5----3-3----3-3----------|
A|-5------1------3------------|
E|-3------1------1------------|

Chorus:
e|-3--3--3--3---1--1--1--1------|
B|-4---0--0--0--3---3--3--3-----|
G|-0----4--4--4-2----2--2--2----|
D|-5-5----------0-0---------x2--|
A|------------------------------|
E|------------------------------|

e|-3-3---3-3---1-1---1-1----|
B|-4--2--3--3--3--3--1--1---|
G|-5---5-3---3-3---3-2---2--|
D|-5-----5-----3-----3------|
A|-3-----5-----1-----3------|
E|-3-----3-----1-----1------|


e|-3-3---3-3---1-1--1--1---------|
B|-4--4--3--3--3--3--3--3-1------|
G|-5---5-3---3-2---2--2----3-2-0-|
D|-5-----5-----0-----------------|
A|-3-----5-----------------------|
E|-3-----3-----------------------|



Middle Bridge:
Guitar 1
e|-4---4---3---3---6---6---6------|
B|-4---4---3---3---6---6---6------|
G|-6---6---5---5---8---8---7------|
D|-6---6---5---5---8---8---8------|
A|-4---4---3---3---6---6---8---x2-|
E|-4---4---3---3---6---6---6------|
Guitar 2
e|-------------------------------|
B|-------------------------------|
G|-6---6-8-5---5-6-8---8-10-7----|
D|-x---x-x-x---x-x-x---x--x-x----|
A|-4---4-6-3---3-4-6---6--8-5----|
E|----------------------------x2-|

End on Gm.
            
Hard to play? Try these video lessons and learn fast. | Correct




comments powered by Disqus
↑ Back to top | Tablatures and chords are parodies/interpretations of the original songs. You may use it for private study, scholarship, research or language learning purposes only