» » »

R.E.M., Turn You Inside Out Bass tabs (ver.1)

Artists:  A B C D E F G H I J K L M N O P Q R S T U V W X Y Z # 

Turn You Inside Out Bass tabs (ver.1)

R.E.M. Tabs
 Rating:
4/5 (4 votes)
Turn You Inside Out lessons Tabs too difficult? Try these video lessons and learn fast
                (1)
REM
                Turn You Inside-Out


This isn't perfect, at least in the verse, so corrections would be most
welcome.

Main riff:
G-|-----------------------------
D-|-----------------------------
A-|----------5p4-5-7-7--5-5-4---(repeat a lot)
E-|-7-7-5-7-------------------5-

Chorus: ("I believe in what you do, I beleive we've been watching you", or
whatever that stuff is) Play the first three notes first time only.
G-|-------------------------------------
D-|-------------------------------------
A-|-------2/4-4---2/4-4---2/4-4---2/4-4-
E-|-0-0-0-------0-------0-------0-------

That bit where they sing the chorus up a pitch, right before the break:
(I don't know how else to describe it.):
G-|-------------------
D-|-------------------
A-|---5-4-2---5-4-2---
E-|-2-------2-------2-  Play this alot, then end on B, drop to A, then
start             .                       the verse riff again.
            
Submit corrections

comments powered by Disqus
↑ Back to top | R.E.M. Bass for Turn You Inside Out. Lyrics for acoustic guitar and electric guitar. Tablatures and chords are parodies/interpretations of the original songs. You may use it for private study, scholarship, research or language learning purposes only