>
 >
The Great Beyond

The Great Beyond Bass Tabs

R.E.M. - The Great Beyond chords, tabs, tablatures, lyrics

Guitar lessons | Add/correct | Request | Top 50 tabs Artists:  A B C D E F G H I J K L M N O P Q R S T U V W X Y Z 0-9

The Great Beyond Bass Tabs – R.E.M.

CD, Sheet music, Poster

Do you like The Great Beyond? Share with your friends now
Bass TabsChordsUkulele
-------------------------------------------------------------------------------
			     The Great Beyond: bass tab - REM
-------------------------------------------------------------------------------


Tuning: 1/4 step up from Standard

Pre-Chorus
"I'm pushing an elephant..."
G|----------------------------------------------------|
D|-----------------0h2--0--2--------------------------|
A|-3--3--2h3p2--0-------------------------------------|
E|----------------------------------------------------|

"I'm tossing up punchlines..."
G|----------------------------------------------------|
D|----------------------------------------------------|
A|-3--3--2h3p2--0----0---0-2--------------------------|
E|-----------------3---3------------------------------|

"Over my shoulder..."
G|----------------------------------------------------|
D|----------------------------------------------------|
A|--3--3--2h3p2--0--0--2-0----------------------------|
E|--------------------------3--3----------------------|

Chorus
"I'm breaking throught..."
G|----------------------------------------------------|
D|----------------------------------------------------|
A|--0--0-2-3-2-0--------3--5--------------------------|
E|----------------3--5--------------------------------|

"I'm keeping flowers..."
G|-----------------------------------------------------|
D|-----------------------------------------------------|
A|--0--0-2-3-2-0---0--2--------------------------------|
E|----------------3-------3--3-------------------------|

"I'm looking for answers..."
G|-----------------------------------------------------|
D|-----------------------------------------------------|
A|--0--0-2-3-2-0------3--5---3---3---3---(3h5--3-2)----|
E|----------------3--5---------------------------------|


| /  slide up
| \  slide down
| h  hammer-on
| p  pull-off
| ~  vibrato
| +  harmonic
| x  Mute note
===============================================================================





Comments


Popular R.E.M. tabs & chords
Worst Joke Ever Bass Tabs
It's A Free World Baby Chords
Action Tabs
It Happened Today Tabs
Swan Swan H Tabs
After Hours Ukulele
Country Feedback Ukulele
Disturbance At The Heron House Ukulele
King Of Comedy Ukulele
Strange Currencies Ukulele


Song lyrics



↑ Back to top | Tablatures and chords are parodies/interpretations of the original songs. You may use it for private study, scholarship, research or language learning purposes only
© 2014 AZChords.com Contact us | Privacy policy | DMCA | Add/correct tabs | Request tabs | Top 50 tabs