» » »

Radio Free Europe Bass tabs (ver.2)

Artists:  A B C D E F G H I J K L M N O P Q R S T U V W X Y Z # 

Radio Free Europe Bass tabs (ver.2)

R.E.M.
Rating:
0/5 (0 votes)

Hard to play? Try these video lessons and learn fast.
                "Radio Free Europe
REM
10/07/2007

Verse

G---------------------------------------|
D----777777777777777--------------66779-|   x4
A-------------------5-7777777777--------|
E---------------------------------------|

Prechorus

G-----------------------------------------------------------|
D--888888-99-11-11-13-14-14-12-12-11-11-9-9-7-6------7------| X1
A-----------------------------------------------9-7----7----|
E-----------------------------------------------------------|


G-----------------------------------------------------------|
D--888888-99-11-11-13-14-14-12-12-11-11-9-9-7-6-------------| X1
A-----------------------------------------------9-7----9----|
E--------------------------------------------------------7--|


Chorus

G----------------------|
D----------------------|
A----77777--445--------|   X4
E---------55-----------|


Bridge

G----------------------------|
D-----------------4-------4--|
A-----------4-6-7---4-6-7----|
E--7-7--7-7------------------|

End

G----------------------------|
D----------------------------|
A----------------------------|
E----7-7-7-5-----------------|
"            
Hard to play? Try these video lessons and learn fast. | Correct




comments powered by Disqus
↑ Back to top | Tablatures and chords are parodies/interpretations of the original songs. You may use it for private study, scholarship, research or language learning purposes only