» » »

New Test Leper Tabs (ver.2)

Artists:  A B C D E F G H I J K L M N O P Q R S T U V W X Y Z # 

New Test Leper Tabs (ver.2)

R.E.M.
Rating:
0/5 (0 votes)

Hard to play? Try these video lessons and learn fast.
                Title : “New Test Leper”



I have a suggested change for the chorus part, using bar chords.  It
accompanies an organ playing the same notes.

A B A D    A         G-D
           Call me a leper
A B A D   A         G-D
           Call me a leper
A B A D   A         G-D
           Call me a leper
A B A D   A         G-D


For first three lines:
      A       B      A     D      A          D
e|----------------------------------------------------|
B|------------------------------------5-------5-------|
G|---------------------------7------------------7-----|
D|------7------9------7----7--------7-------7-----7---|
A|----7------9------7----5--------7-------5-----------|
E|--5------7------5-------------5-------5-------------|

For last (lead-in) line:
      A       B      A     D      A          D     
e|---------------------------------------------------|
B|-------------------------------------5--5----------|
G|---------------------------7---------------7---7---|
D|------7------9------7----7--------7----------7-----|
A|----7------9------7----5--------7------------------|
E|--5------7------5-------------5--------------------|
            
Hard to play? Try these video lessons and learn fast. | Correct




comments powered by Disqus
↑ Back to top | Tablatures and chords are parodies/interpretations of the original songs. You may use it for private study, scholarship, research or language learning purposes only