» » »

New Orleans Instrumental No Tabs (ver.1)

Artists:  A B C D E F G H I J K L M N O P Q R S T U V W X Y Z # 

New Orleans Instrumental No Tabs (ver.1)

R.E.M.
Rating:
0/5 (0 votes)

Hard to play? Try these video lessons and learn fast.
                "(1)
#

# For the latest collection of R.E.M. chords & tab, go to
#
# If you have any corrections or additions to this file, please email them
#

NEW ORLEANS INSTRUMENTAL #1



    Gtr. 1
    w/trem. effect                 Rhy. Fig 1 ---------------------play 4 times
E-|---------------|--------------|-----------------|--------------------------|
B-|---------------|--------------|-----------------|--------------------------|
G-|---------------|--------------|o----------10----|----------9----------9---o|
D-|--10-----------|--------------|o----------10----|---------10---------10---o|
A-|---8-----------|--------------|----8------------|---7-----------7----------|
E-|---8-----------|--------------|----8------------|---8-----------8----------|

    Gtr. 2   w/Rhy. Fig 1 (2 times)
E-|-----------|-------------|-------------|-------------------|
B-|-----------|-------------|-------------|-------------------|
G-|-o--7------|-9-----------|-7-----------|------------------o|
D-|-o---------|-------------|-------------|--7---------5-----o|
A-|-----------|-------------|-------------|-------------------|
E-|-----------|-------------|-------------|-------------------|
    w/ distortion

    w/Rhy. Fig 1 (6 times)
E-|----------------|-----------------------|---------------|------------------|
B-|-8--------------|--10----------8--------|---------------|------------------|
G-|----------------|-----------------------|-9---------7---|--5---------4-----|
D-|----------------|-----------------------|---------------|------------------|
A-|----------------|-----------------------|---------------|------------------|
E-|----------------|-----------------------|---------------|------------------|

                           fdbk.
E-|----------------|-----------------------|---------------|------------------|
B-|----------------|-----------------------|---------------|------------------|
G-|-7--------------|---9-------------------|--7------------|------------------|
D-|----------------|-----------------------|---------------|------------------|
A-|----------------|-----------------------|---------------|--7---------------|
E-|----------------|-----------------------|---------------|------------------|
                         fdbk. pitch: B
                                              fdbk.
E-|----------------|-----------------------|-------------------|
B-|----------------|-----------------------|-------------------|
G-|----------------|-----------------------|-------------------|
D-|----------------|-----------------------|-------------------|
A-|---8------------|---5------(5)-/-7-\-5--|--5----------------|
E-|----------------|-----------------------|-------------------|

    Gtr. 2          fdbk.
E-|------------------------|-----------------|----------------|---------------|
B-|------------------------|-----------------|----------------|---------------|
G-|------------------------|-----------------|-----------5----|---------------|
D-|------------------------|-----------------|---5------------|--7-------5----|
A-|----0-------------------|-----------------|----------------|---------------|
E-|------------------------|-----------------|----------------|---------------|

    Gtr. 1
E-|-------------------|-------------------|-----------------|-----------------|
B-|-------------------|-------------------|-----------------|-----------------|
G-|-2--2---2-----2----|--4--4----4---4----|--2--2---2---2---|-4---4---4---4---|
D-|------2----2-----4-|--------2---2---2--|-------2---2---2-|-------2---2---2-|
A-|-------------------|-------------------|-----------------|-----------------|
E-|-------------------|-------------------|-----------------|-----------------|

    Gtr. 2           fdbk.                                          fdbk.
E-|----------------|-------------------|----------------|---------------------|
B-|----------------|-------------------|----------------|---------------------|
G-|----------------|-------------------|-------5--------|---------------------|
D-|----------------|-------------------|--5-------------|---7-----------------|
A-|-0--------------|-------------------|----------------|---------------------|
E-|----------------|-------------------|----------------|---------------------|
                     fdbk. pitch: C#
    Gtr. 1
E-|-----------------|-------------------------|------------------------|------|
B-|-----------------|-------------------------|------------------------|------|
G-|-2---2---2---2---|-4-----4-----4-----4-----|-2-----2-----2-----2----|-4----|
D-|-------2---2---2-|----2-----2-----2-----2--|----2-----2-----2-----2-|------|
A-|-----------------|-------------------------|------------------------|------|
E-|-----------------|-------------------------|------------------------|------|

    Gtr. 1  w/Rhy. Fig 1 (9 times)                                    1/2 bend
E-|---------------|------------------|-------------------|--------------------|
B-|---------------|-------------8----|--10-------12------|--13------12b-------|
G-|--7------------|--9---------------|-------------------|--------------------|
D-|---------------|------------------|-------------------|--------------------|
A-|---------------|------------------|-------------------|--------------------|
E-|---------------|------------------|-------------------|--------------------|


E-|---------------|-----------------|-----------------|-----------------------|
B-|---------------|-----------------|-----------------|-----------------------|
G-|--7------------|--9--------------|---7-------------|-----------------------|
D-|---------------|-----------------|-----------------|--7---------5----------|
A-|---------------|-----------------|-----------------|-----------------------|
E-|---------------|-----------------|-----------------|-----------------------|


E-|--------------|----------------|-----------------|-------------------------|
B-|--------------|----------------|-----------------|------------8------------|
G-|--4-----------|----------------|---7--------9----|-------------------------|
D-|---------5----|---7------------|-----------------|-------------------------|
A-|--------------|------------5---|-----------------|-------------------------|
E-|--------------|----------------|-----------------|-------------------------|

                                      Begin fade          fdbk.
E-|--------------|----------------|---------------------|---------------------|
B-|--------------|----------------|---------------------|---------------------|
G-|-9--------7---|---5-------4----|---------------------|---------------------|
D-|--------------|----------------|---5-------(5)-/-7---|---------------------|
A-|--------------|----------------|---------------------|---------------------|
E-|--------------|----------------|---------------------|---------------------|

                                                                   Fade out
E-|------------------|----------------|--------------|------------------------|
B-|------------------|----------------|--------------|------------------------|
G-|------------------|----------------|--------------|------------------------|
D-|-5----------------|---7------------|--5-----------|--7---------------------|
A-|------------------|----------------|--------------|------------------------|
E-|------------------|----------------|--------------|------------------------|
"            
Hard to play? Try these video lessons and learn fast. | Correct




comments powered by Disqus
↑ Back to top | Tablatures and chords are parodies/interpretations of the original songs. You may use it for private study, scholarship, research or language learning purposes only