» » »

R.E.M., Low Desert Bass tabs (ver.1)

Artists:  A B C D E F G H I J K L M N O P Q R S T U V W X Y Z # 

Low Desert Bass tabs (ver.1)

R.E.M. Tabs
Rating:
0/5 (0 votes)
Hard to play? Try these video lessons and learn fast.
                "(1)
REM
LOW DESERT  (Last Modifed:  10/16/96)

Bass Tab by Joshua J.B. Smith

(Note: This tab is by no means precise, although it is at least 
passably correct.  Any corrections would be appreciated)

Symbols Used: 
h: hammer-on
/: slide up
P: pop note (pluck very heavily)


Intro/ Second Half of Verse:
                            P
G:---5----------------5-----7-----|
D:-----------------------------5--|
A:5-----0h2--5--5--5--------------|
E:--------------------------------|



First Half of Verse:
G:-----------------------------------------------
D:-----------------------3--3--5--5/7--5h3-------
A:5--5h3--0--3--5--5--5---------------------5h3--
E:-----------------------------------------------

-----------------------------------------------|
-----------------------------------------------|
5--5h3--0--3--5--5--5----------------------3---|
-----------------------1--1--3--3--3--3h5------|


"Hey, Hey" Part:
G:----------------------------------------------------------------|
D:---3h5--5--5--5--3-------------3h5--5--5--5--3------------------|
A:5-------------------5--5\0--5-------------------5--5--3p0--3--5-|
E:----------------------------------------------------------------|


Interlude (ended with a short, 4th fret note on the A-string):
G:-----------------------------------------------|
D:-----------------------------------------------|
A:-----------------------3--3--3--3-----3--3--3--|
E:3--3--3--3--3--3--3/5--------------3-----------|
"            

comments powered by Disqus
↑ Back to top | R.E.M. Bass for Low Desert. Lyrics for acoustic guitar and electric guitar. Tablatures and chords are parodies/interpretations of the original songs. You may use it for private study, scholarship, research or language learning purposes only