» » »

R.E.M., It's The End Of The World As We Know It Bass tabs (ver.2)

Artists:  A B C D E F G H I J K L M N O P Q R S T U V W X Y Z # 

It's The End Of The World As We Know It Bass tabs (ver.2)

R.E.M. Tabs
 Rating:
4/5 (4 votes)
It's The End Of The World As We Know It lessons Tabs too difficult? Try these video lessons and learn fast
                G|-----------------------------------------------------------------|
D|-------------------5---5-----------------------------------------|
A|-----------------5-----------5---3---3-------2---3-----------5---|
E|-3---3-----------------------------------------------------------|
   1 + 2 + 3 + 4 + 1 + 2 + 3 + 4 + 1 + 2 + 3 + 4 + 1 + 2 + 3 + 4 +

G|-----------------------------------------------------------------|
D|-------------------5---5-----------------------------------------|
A|-----------------5-----------5---3---3-------2---3-----5-----5---|
E|-3---3-----------------------------------------------------------|
   1 + 2 + 3 + 4 + 1 + 2 + 3 + 4 + 1 + 2 + 3 + 4 + 1 + 2 + 3 + 4 +

G|-----------------------------------------------------------------|
D|-------------------5---5---5-------------------------------------|
A|-----------------5-----------5---3---3-------2---3-----------5---|
E|-3---3-----------------------------------------------------------|
   1 + 2 + 3 + 4 + 1 + 2 + 3 + 4 + 1 + 2 + 3 + 4 + 1 + 2 + 3 + 4 +

G|-----------------------------------------------------------------|
D|-------------------5---5---5-------------------------------------|
A|-----------------5-----------5---3---3-------2---3-----3---------|
E|-3---3-------------------------------------------------------3---|
   1 + 2 + 3 + 4 + 1 + 2 + 3 + 4 + 1 + 2 + 3 + 4 + 1 + 2 + 3 + 4 +

G|-----------------------------------------------------------------|
D|-----------------------------------------------------------------|
A|-1-----------1---1-----3-----5---0-----0-0---2---3-------5-------|
E|-----------------------------------------------------------------|
   1 + 2 + 3 + 4 + 1 + 2 + 3 + 4 + 1 + 2 + 3 + 4 + 1 + 2 + 3 + 4 +

0:26
G|-----------------------------------------------------------------|
D|-------------------5---5-----------------------------------------|
A|-----------------5-----------5---3---3-------2---3-----------5---|
E|-3---3-----------------------------------------------------------|
   1 + 2 + 3 + 4 + 1 + 2 + 3 + 4 + 1 + 2 + 3 + 4 + 1 + 2 + 3 + 4 +

G|-----------------------------------------------------------------|
D|-------------------5---5-----------------------------------------|
A|-----------------5-----------5---3---3-------2---3-----5-----5---|
E|-3---3-----------------------------------------------------------|
   1 + 2 + 3 + 4 + 1 + 2 + 3 + 4 + 1 + 2 + 3 + 4 + 1 + 2 + 3 + 4 +

G|-----------------------------------------------------------------|
D|-------------------5---5-----------------------------------------|
A|-----------------5-----------5---3---3-------2---3-----------5---|
E|-3---3-----------------------------------------------------------|
   1 + 2 + 3 + 4 + 1 + 2 + 3 + 4 + 1 + 2 + 3 + 4 + 1 + 2 + 3 + 4 +

G|-----------------------------------------------------------------|
D|-------------------5---5-----------------------------------------|
A|-----------------5-----------5---3---3-------2---3-----3---------|
E|-3---3-------------------------------------------------------3---|
   1 + 2 + 3 + 4 + 1 + 2 + 3 + 4 + 1 + 2 + 3 + 4 + 1 + 2 + 3 + 4 +

G|-----------------------------------------------------------------|
D|-----------------------------------------------------------------|
A|-1-----------1---1-----3-----5---0-----0-0---2---3-------5-------|
E|-----------------------------------------------------------------|
   1 + 2 + 3 + 4 + 1 + 2 + 3 + 4 + 1 + 2 + 3 + 4 + 1 + 2 + 3 + 4 +

0:49
G|-------------------------------------9---------------------------|
D|-----------------------------5---7---------7-----7-----9-----9---|
A|-------------3---5---------5-------------5-----------------------|
E|-3---------3-----------------------------------------------------|
   1 + 2 + 3 + 4 + 1 + 2 + 3 + 4 + 1 + 2 + 3 + 4 + 1 + 2 + 3 + 4 +

G|-------------------------------------------------------9-----11--|
D|-5---------------------------5---7-------7-------7-7-------------|
A|-------------3---5---------5---------7---------------------------|
E|-----------3-----------------------------------------------------|
   1 + 2 + 3 + 4 + 1 + 2 + 3 + 4 + 1 + 2 + 3 + 4 + 1 + 2 + 3 + 4 +

0:58
G|-----------------------------------------------------------------|
D|-----------------------------5---7---------------7-----7-----7---|
A|-------------3---5---------5-------------------------------------|
E|-3-------3-3-----------------------------------------------------|
   1 + 2 + 3 + 4 + 1 + 2 + 3 + 4 + 1 + 2 + 3 + 4 + 1 + 2 + 3 + 4 +

G|---------------------------------5-----3-----2-----0-------------|
D|---------------------------------------------------------3-2-0---|
A|-3-----3-3-3-3---3-3-3-3-3-3-3-----------------------------------|
E|-----------------------------------------------------------------|
   1 + 2 + 3 + 4 + 1 + 2 + 3 + 4 + 1 + 2 + 3 + 4 + 1 + 2 + 3 + 4 +

1:07
G|-----------------------------------------------------------------|
D|-------------------5---5-----------------------------------------|
A|-----------------5-----------5---3---3-------2---3-----------5---|
E|-3---3-----------------------------------------------------------|
   1 + 2 + 3 + 4 + 1 + 2 + 3 + 4 + 1 + 2 + 3 + 4 + 1 + 2 + 3 + 4 +

G|-----------------------------------------------------------------|
D|-------------------5---5-----------------------------------------|
A|-----------------5-----------5---3---3-------2---3-----5-----5---|
E|-3---3-----------------------------------------------------------|
   1 + 2 + 3 + 4 + 1 + 2 + 3 + 4 + 1 + 2 + 3 + 4 + 1 + 2 + 3 + 4 +

G|-----------------------------------------------------------------|
D|-------------------5---5-----------------------------------------|
A|-----------------5-----------5---3---3-------2---3-----------5---|
E|-3---3-----------------------------------------------------------|
   1 + 2 + 3 + 4 + 1 + 2 + 3 + 4 + 1 + 2 + 3 + 4 + 1 + 2 + 3 + 4 +

G|-----------------------------------------------------------------|
D|-------------------5---5-----------------------------------------|
A|-----------------5-----------5---3---3-------2---3-----3---------|
E|-3---3-------------------------------------------------------3---|
   1 + 2 + 3 + 4 + 1 + 2 + 3 + 4 + 1 + 2 + 3 + 4 + 1 + 2 + 3 + 4 +

G|-----------------------------------------------------------------|
D|-----------------------------------------------------------------|
A|-1-----------1---1-----3-----5---0-----0-0---2---3-------5-------|
E|-----------------------------------------------------------------|
   1 + 2 + 3 + 4 + 1 + 2 + 3 + 4 + 1 + 2 + 3 + 4 + 1 + 2 + 3 + 4 +

1:31
G|-----------------------------------------------------------------|
D|-----------------------------5---7---------7-----7-----9-----9---|
A|-------------3---5---------5-------------5-----------------------|
E|-3---------3-----------------------------------------------------|
   1 + 2 + 3 + 4 + 1 + 2 + 3 + 4 + 1 + 2 + 3 + 4 + 1 + 2 + 3 + 4 +

G|-------------------------------------9-----------------9-----11--|
D|-5---------------------------5---7---------------7---------------|
A|-------------3---5---------5-------------------------------------|
E|-----------3-----------------------------------------------------|
   1 + 2 + 3 + 4 + 1 + 2 + 3 + 4 + 1 + 2 + 3 + 4 + 1 + 2 + 3 + 4 +

G|-----------------------------------------------------------------|
D|-----------------------------5---7---------------7-----7-----7---|
A|-------------3---5---------5-------------------------------------|
E|-3---------3-----------------------------------------------------|
   1 + 2 + 3 + 4 + 1 + 2 + 3 + 4 + 1 + 2 + 3 + 4 + 1 + 2 + 3 + 4 +

1:45
G|-------------------------------------------------------------------|
D|o-----------------------------------------------------------------o|
A|o-3---3-------3---3-----2-----0-------------------------0-----2---o|x3
E|----------------------------------3-----------3---3----------------|
    1 + 2 + 3 + 4 + 1 + 2 + 3 + 4 + 1 + 2 + 3 + 4 + 1 + 2 + 3 + 4 +

1:59
G|-----------------------------------------------------------------|
D|---------------------------------3-----2-----3-------2---3---2---|
A|-----------------------3-----3-----------------------------------|
E|-1-----------1---1-----------------------------------------------|
   1 + 2 + 3 + 4 + 1 + 2 + 3 + 4 + 1 + 2 + 3 + 4 + 1 + 2 + 3 + 4 +

2:03
G|-----------------------------------------------------------------|
D|-----------------------------5---7-------7-------7-----9-----9---|
A|-------------3---5---5-----5-------------------------------------|
E|-3---3-----3-----------------------------------------------------|
   1 + 2 + 3 + 4 + 1 + 2 + 3 + 4 + 1 + 2 + 3 + 4 + 1 + 2 + 3 + 4 +

G|-------------------------------------------------------9-----11--|
D|-5---------------------------5---7---------------7---------------|
A|-------------3---5---------5-------------------------------------|
E|-----------3-----------------------------------------------------|
   1 + 2 + 3 + 4 + 1 + 2 + 3 + 4 + 1 + 2 + 3 + 4 + 1 + 2 + 3 + 4 +

G|-----------------------------------------------------------------|
D|-----------------------------5---7---------------7-----7-----7---|
A|-------------3---5---------5-------------------------------------|
E|-3---3-----3-----------------------------------------------------|
   1 + 2 + 3 + 4 + 1 + 2 + 3 + 4 + 1 + 2 + 3 + 4 + 1 + 2 + 3 + 4 +

G|---------------------------------5-----3-----2-----0-------------|
D|---------------------------5-5---------------------------3-2-0---|
A|-3---3-3-3-3-3---3-3-3-3-3---------------------------------------|
E|-----------------------------------------------------------------|
   1 + 2 + 3 + 4 + 1 + 2 + 3 + 4 + 1 + 2 + 3 + 4 + 1 + 2 + 3 + 4 +

2:22
G|-----------------------------------------------------------------|
D|-------------------5---5-----------------------------------------|
A|-----------------5-----------5---3---3-------2-------------------|
E|-3---3-----------------------------------------------------------|
   1 + 2 + 3 + 4 + 1 + 2 + 3 + 4 + 1 + 2 + 3 + 4 + 1 + 2 + 3 + 4 +

G|-----------------------------------------------------------------|
D|-------------------5---5-----------------------------------------|
A|-----------------5-----------5---3---3-------2---3-----3---------|
E|-3---3-------------------------------------------------------3---|
   1 + 2 + 3 + 4 + 1 + 2 + 3 + 4 + 1 + 2 + 3 + 4 + 1 + 2 + 3 + 4 +

G|-----------------------------------------------------------------|
D|-----------------------------------------------------------------|
A|-1-----------1---1-----3-----5---0-----0-0---2---3-------5-------|
E|-----------------------------------------------------------------|
   1 + 2 + 3 + 4 + 1 + 2 + 3 + 4 + 1 + 2 + 3 + 4 + 1 + 2 + 3 + 4 +

2:36
G|-----------------------------------------------------------------|
D|-----------------------------5---7---------------7-----9-----9---|
A|-------------3---5---------5-------------------------------------|
E|-3---3-----3-----------------------------------------------------|
   1 + 2 + 3 + 4 + 1 + 2 + 3 + 4 + 1 + 2 + 3 + 4 + 1 + 2 + 3 + 4 +

G|-------------------------------------------------------9-----11--|
D|-5---5-----------------------5---7---------7-----7---------------|
A|-------------3---5---------5-------------5-----------------------|
E|-----------3-----------------------------------------------------|
   1 + 2 + 3 + 4 + 1 + 2 + 3 + 4 + 1 + 2 + 3 + 4 + 1 + 2 + 3 + 4 +

G|-----------------------------------------------------------------|
D|-----------------------------5---7---------7-----7-----7-----7---|
A|-------------3---5---------5-------------5-----------------------|
E|-3---3-----3-----------------------------------------------------|
   1 + 2 + 3 + 4 + 1 + 2 + 3 + 4 + 1 + 2 + 3 + 4 + 1 + 2 + 3 + 4 +

G|---------------------------------5-----3-----2-----0--------------------|
D|---------------------------5-5---------------------------3-2-0----------|
A|-3---3-----3-3---3-----3------------------------------------------------|
E|-----------------------------------------------------------------3------|
   1 + 2 + 3 + 4 + 1 + 2 + 3 + 4 + 1 + 2 + 3 + 4 + 1 + 2 + 3 + 4 +

Rest

3:18
G|-----------------------------------------------------------------|
D|-----------------------------5---7---------7-----7-----9-----9---|
A|-------------3---5---------5-------------5-----------------------|
E|-3---3-----3-----------------------------------------------------|
   1 + 2 + 3 + 4 + 1 + 2 + 3 + 4 + 1 + 2 + 3 + 4 + 1 + 2 + 3 + 4 +

G|-------------------------------------------------------9-----11--|
D|-5---5-----------------------5---7---7-----7-----7---------------|
A|-------------3---5---------5-------------5-----------------------|
E|-----------3-----------------------------------------------------|
   1 + 2 + 3 + 4 + 1 + 2 + 3 + 4 + 1 + 2 + 3 + 4 + 1 + 2 + 3 + 4 +

G|-----------------------------------------------------------------|
D|-----------------------------5---7---------7-----7-----7-----7---|
A|-------------3---5---------5-------------5-----------------------|
E|-3---3-----3-----------------------------------------------------|
   1 + 2 + 3 + 4 + 1 + 2 + 3 + 4 + 1 + 2 + 3 + 4 + 1 + 2 + 3 + 4 +

G|---------------------------------5-----3-----2-----0-------------|
D|---------------------------5-5---------------------------3---2---|
A|-3---3-----3-3---3-----3-----------------------------------------|
E|-----------------------------------------------------------------|
   1 + 2 + 3 + 4 + 1 + 2 + 3 + 4 + 1 + 2 + 3 + 4 + 1 + 2 + 3 + 4 +

3:37
G|-----------------------------------------------------------------|
D|-----------------------------5---7---------------7-----9-----9---|
A|-------------3---5---------5-------------------------------------|
E|-3---3-----3-----------------------------------------------------|
   1 + 2 + 3 + 4 + 1 + 2 + 3 + 4 + 1 + 2 + 3 + 4 + 1 + 2 + 3 + 4 +

G|-------------------------------------------------------9-----11--|
D|-5---5-----------------------5---7---------7-----7---------------|
A|-------------3---5---------5-------------5-----------------------|
E|-----------3-----------------------------------------------------|
   1 + 2 + 3 + 4 + 1 + 2 + 3 + 4 + 1 + 2 + 3 + 4 + 1 + 2 + 3 + 4 +

G|-----------------------------------------------------------------|
D|-----------------------------5---7---------------7-----7-----7---|
A|-------------3---5---------5-------------------------------------|
E|-3---3-----3-----------------------------------------------------|
   1 + 2 + 3 + 4 + 1 + 2 + 3 + 4 + 1 + 2 + 3 + 4 + 1 + 2 + 3 + 4 +

G|---------------------------------5-----3-----2-----0-------------|
D|---------------------------5-5---------------------------3---2---|
A|-3---3-----3-3---3-----3-----------------------------------------|
E|-----------------------------------------------------------------|
   1 + 2 + 3 + 4 + 1 + 2 + 3 + 4 + 1 + 2 + 3 + 4 + 1 + 2 + 3 + 4 +
            
Submit corrections

comments powered by Disqus
↑ Back to top | R.E.M. Bass for It's The End Of The World As We Know It. Lyrics for acoustic guitar and electric guitar. Tablatures and chords are parodies/interpretations of the original songs. You may use it for private study, scholarship, research or language learning purposes only