» » »

R.E.M., Hyena Tabs (ver.2)

Artists:  A B C D E F G H I J K L M N O P Q R S T U V W X Y Z # 

Hyena Tabs (ver.2)

R.E.M. Tabs
 Rating:
4/5 (4 votes)
Hyena lessons Tabs too difficult? Try these video lessons and learn fast
1
                ------------------------------------------------------------------------
                Hyena - REM
------------------------------------------------------------------------

Intro/Middle Bridge
e|-0--0--0--0--0---0--0--0--0--0-----|
B|-0-0-0--0--0--0--0-0-0--0--0--0----|
G|-9---------------9-----------------|
D|-9----9--9--9--9-7----7--7--7--7---|
A|-7---------------0-----------------|
E|-0---------------0-----------------|

Verse
Hit those open notes while playing riff
e|-0---0-0-----------------------------------------------|
B|-0---0-0-----------------------------------------------|
G|-9---9-9-----------------------------------------------|
D|-9---7-9---11-12-12-12-12-12-11-9-11-11-11-11-11-9-7---|
A|-7---0-7-----------------------------------------------|
E|-0---0-0-----------------------------------------------|

Bridge to Chorus
e|--0-----|
B|--0-----|
G|--9-----|
D|-11-----|
A|--0-----|
E|--0-----|

Chorus
e|--0--0--0-0--0--0--0--0--0--0-0-0---|
B|--0--0--0-0--0--0--0--0--0--0-0-0---|
G|--9--9--9-9-12-12-12-11-11-11-9-9---|
D|-11-11-12-0-------------------------|
A|------------------------------------|
E|------------------------------------|

Bridge to Verse
e|--0--0--0-0--0--0--0--0--0--0--0--0---|
B|--0--0--0-0--0--0--0--0--0--0--0--0---|
G|--9--9--9-9-12-12-12-11-11-11--9--9---|
D|-11-11-12-0-------------------12-12---|
A|--------------------------------------|
E|--------------------------------------|

End on
e|-0----|
B|-0----|
G|-9----|
D|-9----|
A|-7----|
E|-0----|
            
Submit corrections

comments powered by Disqus
↑ Back to top | R.E.M. Tabs for Hyena. Lyrics for acoustic guitar and electric guitar. 1 Tablatures and chords are parodies/interpretations of the original songs. You may use it for private study, scholarship, research or language learning purposes only