» » »

R.E.M., Hollow Man Chords (ver.1)

Artists:  A B C D E F G H I J K L M N O P Q R S T U V W X Y Z # 

Hollow Man Chords (ver.1)

R.E.M. Tabs
 Rating:
4/5 (4 votes)
Hollow Man lessons Tabs too difficult? Try these video lessons and learn fast
1
                Verse Riff:
Part 1:
   E               D         A
E-----0--0---0---0-----2------------|
B------0------0----------3---3------|
G---0---1---1--1-----2--------3-----|
D----------2-------0------0----3----|
A-2--------2--------------------0-0-|
E-0------------------------------0--|

Part 2:
   E               D        E
E-----0--0---0---0----2---------0-0-0-|
B------0------0--------3--------0-0-0-|
G---0---1---1--1----2---2---1-1-1-1-1-|
D----------2-------0-----0--2-2-2-2-2-|
A-2--------2----------------2-2-2-2-2-|
E-0-----------------------------------|


[Intro] (Only strum chords once during keyboard intro and only strum 3 strings for each.)

E (Use only 3 strings; x221xx)
I've been lost
D(xx023x) A (x033xx)
inside my head,
E (x221xx)      D (xx023x)  A (x033xx)
Echoes fall off me...

[Verse]
Verse Riff Part 1: (E, D, A)
I took the prize last night for complicated mess.
Verse Riff Part 2: (E, D, E)
For saying things I didn't mean and don't believe in...

[Chorus]
A          D   C#m        Bm
Believe In Me, believe in nothing,
A      D       C#m        Bm
Corner Me, and make me something,
A         D     C#m       Bm
I've become the hollow man,
A          D      C#m     Bm      E (Back 
intro configuration)...
Have I become the hollow man I see?

[Bridge]
E (x221xx) D (xx023x) A (x033xx)
I see this echoing,

[Verse]
Verse Riff Part 1: (E, D, A)
You had placed your trust in me,
Verse Riff Part 1: (E, D, A)
I went upside down,
Verse Riff Part 1: (E, D, A)
I emptied out the room in 30 seconds flat,
Verse Riff Part 2: (E, D, E)
I can't believe you held your ground

[Chorus]
A          D   C#m        Bm
Believe in me, believe in nothing,
A      D       C#m        Bm
Corner me and make me something,
A      D       C#m        Bm
I've become the Hollow Man,
A          D      C#m     Bm      E
Have I become the Hollow Man I see?

[Solo Link]
E--0---0----0-0-0-0--0--0--0------------|
B---0---0---0-0-0-0---0--0--0-----------|
G-9---7-----6-4-7-6-7--7--7-------------|
D---------------------------------------|
A-----------------------------5-4--5-4--|
E--------------------------------5----5-|


[Chorus]
A          D   C#m        Bm
I'm overwhelmed, I'm on repeat,
A      D       C#m        Bm
I'm emptied out, I'm incomplete,
A      D       C#m        Bm
You trusted me, I want to show you,
A          D      C#m     Bm
I don't want to be the Hollow Man...

[Chorus]
A          D   C#m        Bm
Believe in me, believe in nothing,
A      D       C#m        Bm
Corner me, and make me something,
A      D       C#m        Bm
I've become the Hollow Man,
A          D      C#m     Bm
Have I become the Hollow Man I see?...
A          D      C#m     Bm
I see...


A          D      C#m     Bm (x2)

End on A.
            
Submit corrections

comments powered by Disqus
↑ Back to top | R.E.M. Chords for Hollow Man. Lyrics for acoustic guitar and electric guitar. 1 Tablatures and chords are parodies/interpretations of the original songs. You may use it for private study, scholarship, research or language learning purposes only