» » »

R.E.M., Hollow Man Tabs (ver.1)

Artists:  A B C D E F G H I J K L M N O P Q R S T U V W X Y Z # 

Hollow Man Tabs (ver.1)

R.E.M. Tabs
Rating:
0/5 (0 votes)
Hollow Man lessons Tabs too difficult? Try these video lessons and learn fast
                Album:Accelerate

For any comments,questions or suggestions,just post a comment or PM me.Pilipino Rules!!

Gtr.Legends:
~ - let it ring
. - palm muting
x - dead string

Gtr.Tuning:Standard(Normal)

Intro:(Piano converted to guitar)
e|-----4~---------4------------|
B|-7-5-x------7-5-x-7-3-2-0~---|
G|-4-4-4~-----4-4-4-4-4-4-4~---|
D|-----------------------------|
A|-----------------------------|
E|-----------------------------|

Verse 1:I've been lost...
e|--------------------------------|
B|-4~---2~---2~----4~---2~---2~---|
G|-2~---2~---------2~---2~--------|
D|--------------------------------|
A|--------------------------------|
E|--------------------------------|

Pre-Chorus:I took the...
e|----0-----0------0---------0--------------------0------0------0--------0------------|
B|------0-----0------0-----3---3-2------------------0------0------0----3---3--00000---|
G|---------------------------------2---2---2----------------------------------11111---|
D|--2-----2------2-------0-----------2---2------2------2------2------0--------22222---|
A|----------------------------------------------------------------------------22222---|
E|----------------------------------------------------------------------------00000---|

Chorus:Believe in me..
e|-----------------------------------|
B|-----------------------------------|
G|-----777-66-999-------777-66-444---| 2x
D|-777-777-66-999---777-777-66-444---|
A|-777-555-44-777---777-555-44-222---|
E|-555--------------555--------------|

Verse 2:
Gtr.1(Piano coverted to guitar):I see this echoing...
e|--------------------------------|
B|-4~---2~---2~----4~---2~---2~---|
G|-2~---2~---------2~---2~--------|
D|--------------------------------|
A|--------------------------------|
E|--------------------------------|

Gtr.2 Enters:You had placed...
e|----0-----0------0---------0----------------      ----0------0------0--------0--------------|
B|------0-----0------0-----3---3-2------------      ------0------0------0----3---3----00000---|
G|---------------------------------2---2---2-- 3x   ----------------------------------11111---|
D|--2-----2------2-------0-----------2---2---- Then --2------2------2------0----------22222---|
A|--------------------------------------------      ----------------------------------22222---|
E|--------------------------------------------      ----------------------------------00000---|

Repeat Chorus:Believe in me...

e|-------------------------------------------------------------|
B|-777-555-333-22-0---3-2-0------5-7---5-7---5-7---5-7---5-7---|
G|-444-444-444-44-4---4-4-4----7-----7-----7-----7-----7-------|
D|-------------------------------------------------------------|
A|-------------------------------------------------------------|
E|-------------------------------------------------------------|

Repeat Chorus:I'm overwhelmed...

Outro:
Bass is still playing the chorus

Gtr.1
e|-----------------------------|
B|-----------------------------|
G|-2-2-2-2-2-2-2-2-2-2-2--2~---|
D|-2-2-2-2-2-2-2-2-2-2-2--2~---|
A|-0-0-0-0-0-0-0-0-0-0-0--0~---|
E|-----------------------------|
   . . . . . . . . . . .   

Gtr.2
e|-----------------------------|
B|-----------------------------|
G|-999999999999999999999--2~---|
D|-xxxxxxxxxxxxxxxxxxxxx--2~---|
A|-777777777777777777777--0~---|
E|-----------------------------|

End...


Hollow Man Lyrics:

Verse 1:
I've been lost inside my head
Echoes fall off me

Pre-Chorus:
I took the prize last night
for complicated mess
for saying things I didn't mean
and don't believe

Chorus:
Believe in me
Believe in nothing
Corner me
And make me something
I've become the hollow man
have I become the hollow man I see?

Verse 2:
I see this echoing
You had placed your trust in me
I went upside down
I emptied out the room in thirty seconds left
I can't believe you held your ground

Repeat Chorus:

I'm overwhelmed
I'm on repeat
I'm emptied out
I'm incomplete
You trusted me
I want to show you
I don't want to be the hollow man

Believe in me
Believe in nothing
Corner me
And make me something
I've become the hollow man
have I become the hollow man I see?
            
Submit corrections

comments powered by Disqus
↑ Back to top | R.E.M. Tabs for Hollow Man. Lyrics for acoustic guitar and electric guitar. Tablatures and chords are parodies/interpretations of the original songs. You may use it for private study, scholarship, research or language learning purposes only