» » »

R.E.M., Good Advices Bass tabs (ver.2)

Artists:  A B C D E F G H I J K L M N O P Q R S T U V W X Y Z # 

Good Advices Bass tabs (ver.2)

R.E.M. Tabs
 Rating:
4/5 (4 votes)
Good Advices lessons Tabs too difficult? Try these video lessons and learn fast
1
                "#

GOOD ADVICES



-------------------------------------------------------------
---------------------------------------------------2--4--2
-7--7-7------7--7--7699-7--5--5-5----5--5--------------5
----------7----------------------------5--------------------


----------------------------------------------------
----------------------------------------------------
---0--0-2--2-4--4-5--5-7--7--7-----9-----------
------------------------------------9-----7-7--7--

Walking Bass
-------------------------------------------------------------------------------------------------------------
-------4--------6--4696------------------------------------7--6---4--6-(4)---------------7--6--4----------
-0--4----2--4----------7--7-7--7------------7--7-7--7--------------------7-7--7-7--7----------7--4--2-
------------------------------------5--5-5--5-----------------------------------------------------------------


---------------------------------------------------------------------------------------------------
--------4--------6--4---6---------------------------7--7-7--7-7--7-7------9------------------
-0--4-----2--4------------7--7-7--7------------------------------------9-----------------------
-----------------------------------------5--5-5--5-----------------------------------------------


C-part.

-------------------------------------------------------------------
-------------------------------------------------------------------
-5--5-5--5--5--5-5---4---0---5--5-5--5--5--5-5---4--0-----
-------------------------------------------------------------------

Play the record for rythm indication. 
"            
Submit corrections

comments powered by Disqus
↑ Back to top | R.E.M. Bass for Good Advices. Lyrics for acoustic guitar and electric guitar. 1 Tablatures and chords are parodies/interpretations of the original songs. You may use it for private study, scholarship, research or language learning purposes only