» » »

Apocalypse Wow! Tabs (ver.2)

Artists:  A B C D E F G H I J K L M N O P Q R S T U V W X Y Z # 

Apocalypse Wow! Tabs (ver.2)

Reggie And The Full Effect
Rating:
0/5 (0 votes)

Tabs too difficult? Try these video lessons and learn fast.
                -choii

Keyboard Intro 
e|---------------------------------------------------------------------------| 
B|------10--9--7--5--7--5----------------10-9-10-12-10-9-7-------------------| 
G|---6--------------------6--x5?-----6---------------------------------------| 
D|---------------------------------------------------------------------------| 
A|---------------------------------------------------------------------------| 
E|---------------------------------------------------------------------------| 
Keyboard Harmony: 
e|------9--7--5--4--5--4--0--------------------------------------------------| 
B|---------------------------------------------------------------------------| 
G|---6-----------------------------------------------------------------------| 
D|---------------------------------------------------------------------------| 
A|---------------------------------------------------------------------------| 
E|---------------------------------------------------------------------------| 

Chords used through Verse/Chorus 
e|------------------0--------------------------------------------------------| 
B|------------------0--------------------------------------------------------| 
G|---6----7----11---1--------------------------------------------------------| 
D|---6----7----11---2--------------------------------------------------------| 
A|---4----5----9----2--------------------------------------------------------| 
E|---4----5----9----0--------------------------------------------------------|
            
Tabs too difficult? Try these video lessons and learn fast.


comments powered by Disqus
↑ Back to top | Tablatures and chords are parodies/interpretations of the original songs. You may use it for private study, scholarship, research or language learning purposes only