>
 >
Just Another Night

Just Another Night Guitar Tabs

Reamonn - Just Another Night chords, tabs, tablatures, lyrics

Guitar lessons | Add/correct | Request | Top 50 tabs Artists:  A B C D E F G H I J K L M N O P Q R S T U V W X Y Z 0-9

Just Another Night Guitar Tabs – Reamonn

CD, Sheet music, Poster

Do you like Just Another Night? Share with your friends now
ChordsTabsUkulele
-------------------------------------------------------------------------------
			  Reamonn - Just Another Night
-------------------------------------------------------------------------------


Tuning: Standard E


Intro: Am-C-G-Am-C-G

e|---------------------------------------------------------------------------|
B|----------5BU6-5---5BU6-5---6RB5-5--------------5BU6-5---------------------|
G|-------5--------5--------5--------5-7BU9-4-5/7-----------------------------|
D|---------------------------------------------------------------------------|
A|---------------------------------------------------------------------------|
E|---------------------------------------------------------------------------|

e|---------------------------------------------------------------------------|
B|----------5BU6-5---5BU6-5---6RB5-------------------------------------------|
G|-------5--------5--------5--------4-5/7--5\2-------------------------------|
D|---------------------------------------------------------------------------|
A|---------------------------------------------------------------------------|
E|---------------------------------------------------------------------------|

1. Verse: Am-C-G-Am-C-G-Dm-F-Em-F

e|------------------------------12BU13-12-10--12BU13-12-10-------------------|
B|--10RB8-8------------------------------------------------------------------|
G|-------------5BU7-7--7BU9~-------------------------------------------------|
D|-------------------------------------------------------------7-------------|
A|----------------------------------------------------------------5----------|
E|---------------------------------------------------------------------------|

	                                                 
Leads into chorus
e|---------------------------------------------------------------------------|
B|---5-----5------5-------5-------5------------------------------------------|
G|------5--6--4-------4-------4-------4------7777777777777777/10101010\------|
D|--------------5---5---5---5---5---5---5------------------------------------|
A|---------------------------------------------------------------------------|
E|---------------------------------------------------------------------------|

Chorus: Am-C-G
	
	2x				                                    then
e|---------------------------------------------------------------------------|
B|---------------------------------------------------------------------------|
G|---999999999\555555555/101010101010--------999999\555555/10101010\4444/5555|
D|---------------------------------------------------------------------------|
A|---------------------------------------------------------------------------|
E|---------------------------------------------------------------------------|

e|---------------------------------------------------------------------------|
B|---------------------------------------------------------------------------|
G|--/777777\555555--2--------------------------------------------------------|
D|---------------------------------------------------------------------------|
A|---------------------------------------------------------------------------|
E|---------------------------------------------------------------------------|

2. Verse: Am-C-G-Am-C-G-Dm-F-Em-F

e|----------------------------------------12-13-13BU15~---13RB12-10~---------|
B|-----------------6-5-----8BU10-8-------------------------------------------|
G|------------7BU9-----------------------------------------------------------|
D|---/7-5--------------------------------------------------------------7-----|
A|-----------------------------------------------------------------------5---|
E|---------------------------------------------------------------------------|

e|---------------------------------------------------------------------------|
B|---5-----5------5-------5-------5------------------------------------------|
G|------5--6--4-------4-------4-------4------7777777777777777/10101010\------|
D|--------------5---5---5---5---5---5---5------------------------------------|
A|---------------------------------------------------------------------------|
E|---------------------------------------------------------------------------|

Outro: Dm-F-Am

And then she screams out loud....    Im taking back whats mine
e|---------------------------------------------------------------------------|
B|---------------------------------------------------------------------------|
G|-----------1010101010101010101010------------------99999997777777555555--2-|
D|---------------------------------------------------------------------------|
A|---------------------------------------------------------------------------|
E|---------------------------------------------------------------------------|





Comments


Popular Reamonn tabs & chords
Alright Bass Tabs
Angels Fly Chords
I Need You Chords
Sometimes Chords
Supergirl 3 Chords
Supergirl 4 Chords
Through The Eyes Of A Child 1 Chords
Tonight Chords
Moments Like This 1 Tabs
I Need You Ukulele


Song lyrics



↑ Back to top | Tablatures and chords are parodies/interpretations of the original songs. You may use it for private study, scholarship, research or language learning purposes only
© 2014 AZChords.com Contact us | Privacy policy | DMCA | Add/correct tabs | Request tabs | Top 50 tabs