» » »

Real Mckenzies, Pour Decisions Tabs (ver.2)

Artists:  A B C D E F G H I J K L M N O P Q R S T U V W X Y Z # 

Pour Decisions Tabs (ver.2)

Real Mckenzies Tabs
Rating:
0/5 (0 votes)
Pour Decisions lessons Tabs too difficult? Try these video lessons and learn fast
                ----------------------------------------------------------------------------
                         The Real McKenzies - Pour Decisions
----------------------------------------------------------------------------

Intro                         
e|-------------------|   -------------------|
B|-------------------|   -------------------|
G|-888---------------|   -------------------|
D|-888-8-101010-8----|   --8----------------|
A|-666-8-101010-8----|   --8----------------|
E|-----6-8-8-8--6----|x4 --6----------------|

Main Riff
e|--------------1-3-1-----------1-3-1----------------------------------|
B|------1-3-1---------3-1-3-1---------3-1-3-1---1-3--------------------|
G|--3-3-------3---------------3---------------3-----0-0---0------------|
D|------------------------------------------------------3--------------|
A|---------------------------------------------------------------------|
E|---------------------------------------------------------------------| x2

Verse
e|----------------------------------------------------|
B|----------------------------------------------------|
G|-------88----88-------------------------------------|
D|--8888-88-88-88-88-5555-----------------------------|
A|--8888-66-88-66-88-5555-----------------------------|
E|--6666----66----66-3333-----------------------------| x4

Chorus
e|------------------------|
B|------------------------| 
G|---8888-----------------|   
D|---8888-8888-3333-5555--|   
A|---6666-8888-3333-5555--|   
E|--------6666-1111-3333--| x1

Verse
e|----------------------------------------------------|
B|----------------------------------------------------|
G|-------88----88-------------------------------------|
D|--8888-88-88-88-88-5555-----------------------------|
A|--8888-66-88-66-88-5555-----------------------------|
E|--6666----66----66-3333-----------------------------| x4

Chorus
e|------------------------|    -----------------------|
B|------------------------|    -----------------------|
G|---8888-----------------|    --88-1010--------------|
D|---8888-8888-3333-5555--|    --88-1010--------------|
A|---6666-8888-3333-5555--|    --66-8-8---------------|
E|--------6666-1111-3333--| x3 -----------------------|

Bridge
e|-------------------|   
B|-------------------|  
G|-888---------------|   
D|-888-8-101010-8----|   
A|-666-8-101010-8----|   
E|-----6-8-8-8--6----| x8

Verse
e|----------------------------------------------------|
B|----------------------------------------------------|
G|-------88----88-------------------------------------|
D|--8888-88-88-88-88-5555-----------------------------|
A|--8888-66-88-66-88-5555-----------------------------|
E|--6666----66----66-3333-----------------------------| x2
            

comments powered by Disqus
↑ Back to top | Real Mckenzies Tabs for Pour Decisions. Lyrics for acoustic guitar and electric guitar. Tablatures and chords are parodies/interpretations of the original songs. You may use it for private study, scholarship, research or language learning purposes only