» » »

Real Estate, Dumb Luck Tabs (ver.1)

Artists:  A B C D E F G H I J K L M N O P Q R S T U V W X Y Z # 

Dumb Luck Tabs (ver.1)

Real Estate Tabs
 Rating:
4/5 (4 votes)
Dumb Luck lessons Tabs too difficult? Try these video lessons and learn fast
1
                -------------------------------------------------------------------------------
-------------------------------------------------------------------------------

Tuning: EADGBe

Intro

e|--------------------------------------------------------------|
B|--------------------------------------------------------------|
G|-----------1-------1--1---1--1-1------1-----------------------|
D|------2-4--2-------2--2-----------4---2----------2--4---------|
A|--2-4------2-------2--2---------------2--0h2--4---------------|
E|-----------0-------0--0---------------0-----------------------|

Main Riff

Basicly the same, feel free to let your guitar god out and add your
own stuff, since it's just the E-chord..

You can try to pick the B and e strings the whole time while playing the rest,
I think they're normally played by guitar 2 alone, they're a little off here
but you'll get the picture!

e|-----------0---0---0---0---0---0---0---0---0---0---0----------|
B|-------------0---0---0---0---0---0---0---0---0---0---0--------|
G|-----------1-------1--1---1--1-1------1-----------------------|
D|------2-4--2-------2--2-----------4---2----------2--4---------|
A|--2-4------2-------2--2---------------2--0h2--4---------------|
E|-----------0-------0--0---------------0-----------------------|

Interlude

e|----7---7---7---7---7------9---9---9---9---9----------------|
B|--0---0---0---0---0------0---0---0---0---0------------------|
G|------------------------------------------------------------|
D|------------------------------------------------------------|
A|------------------------------------------------------------|
E|------------------------------------------------------------|

Lyrics

I drove into a children's book 
and now I'm stuck
How could this happen to me
I guess it's just dumb luck
I sink into a lucid dream 
and it came to me
The islands bulged 
into cold blue night 
in a place that I couldn't be
Some dumb luck

I'm going to an empty nest 
on reality TV
A town that's leading 
it's simple lives, 
it's a shame that they can't see
Some dumb luck
            
Submit corrections

comments powered by Disqus
↑ Back to top | Real Estate Tabs for Dumb Luck. Lyrics for acoustic guitar and electric guitar. 1 Tablatures and chords are parodies/interpretations of the original songs. You may use it for private study, scholarship, research or language learning purposes only