>
 >
Degenerated

Degenerated Guitar Tabs

Reagan Youth - Degenerated chords, tabs, tablatures, lyrics

Guitar lessons | Add/correct | Request | Top 50 tabs Artists:  A B C D E F G H I J K L M N O P Q R S T U V W X Y Z 0-9

Degenerated Guitar Tabs – Reagan Youth

CD, Sheet music, Poster

Do you like Degenerated? Share with your friends now
TabsTabs v2
Reagan Youth

Tune guitar down 1/4 of a step, so in the middle of E an Eb

I think the way he gets the distortion is putting the wah all the way in bass position.

a star (*) means it comes from thesecond guitar 
P under notes means palm mute

Starts w/voices

|---------------|---------------|-------------------|---------------|
|---------------|---------------|-------------------|---------------|
|---------------|-5-5-5---------|-------------------|---------------|
|-7-7-7---------|-5-5-5---------|-5-5-5-------------|-7-7-7---------|
|-7-7-7---------|-3-0-3---------|-5-5-5-------------|-7-7-7---------|
|-5-0-5---------|---------------|-3-0-3-------------|-5-0-5---------|
                                        *Pick Scrape

|-----------------|-----------------|-----------------|-----------------|
|-----------------|-----------------|-----------------|-----------------|
|-----------------|-----------------|---------------5-|-------------5---|
|---------------7-|-------------7---|-5-5-5-5-5-5-5-5-|---5-5-5-5-5-5---|
|-7-7-7-7-7-7-7-7-|---7-7-7-7-7-7---|-3-3-3-3-3-3-0-3-|---3-3-3-3-3-3---|
|-5-5-5-5-5-5-0-5-|---5-5-5-5-5-5---|-----------------|-----------------|
  P P P P P P         P P P P P       P P P P P P         P P P P P
                              *Feedback
                                                      
|-----------------|-----------------|-----------------|--------------
|-----------------|-----------------|-----------------|Cut out in---- 
|-----------------|-----------------|-----------------|the middle of- 
|---------------5-|-------------5---|---------------7-|the mesure----
|-5-5-5-5-5-5-5-5-|---5-5-5-5-5-5---|-7-7-7-7-7-7-7-7-|-7-7-7-7------
|-3-3-3-3-3-3-0-3-|---3-3-3-3-3-3---|-5-5-5-5-5-5-0-5-|-5-5-5-5------
  P P P P P P         P P P P P       P P P P P P       P P P P
                                                *Pick scrape

Verse and Chorus are A5 C5 G5.  2 mesures each, all eigth notes.
                     |  |  |
                     |  |  |                
                     |  5  |
                     7  5  5
                     7  3  5
                     5  |  3

Solo                                 bend slightly
|----------------------------------10^--|
|-/10-12-12-10-12-10-12-10-12-12-12---12|
|---------------------------------------|
|---------------------------------------|
|---------------------------------------|
|---------------------------------------|

  Play a lot of these fast
|-------------------------|
|-13-12-13-12-13-12-13-12-|
|-------------------------|
|-------------------------|
|-------------------------|
|-------------------------|

|------------------------------------|
|---------12-13-12-------------------|
|-12---14----------12--14------12-14-|
|------------------------------------|
|------------------------------------|
|------------------------------------|

|----------12-----------12-------|
|----14-----------14----------16-|
|-14----14-----14----14----14----|
|--------------------------------|
|--------------------------------|
|--------------------------------|

|----------15---------15--------|
|----17----------17---------19--|
|-17----17----17----17---17-----|
|-------------------------------|
|-------------------------------|
|-------------------------------|

|----------10----------10----|
|----12----------12----------|
|-12----12----12----12----12-|
|----------------------------|
|----------------------------|
|----------------------------|

|-------------------------------|
|-------------------------------|
|--Play a bunch of these fast---|
|-5-7-5-7-5-7-5-7-5-7-5-7-5-7-5-|
|-------------------------------|
|-------------------------------|

|----------------------|
|-/14---14--15--12--13-|
|----------------------|
|----------------------|
|----------------------|
|----------------------|

|
|-13-12-13-12-13-12-13-12-13-12-13---|
|-12-12-12-12-12-12-12-12-12-12-12-12|
|-10-10-10-10-10-10-10-10-10-10-10---|
|------------------------------------|
|------------------------------------|
|------------------------------------|

 Do a bunch of these fast
|-14-15-14-5-14-15-14--------|
|----------------------------|
|--------------------------16|
|-----------------------14---|
|----------------------------|
|----------------------------|Pick slide

That's it





Comments


Popular Reagan Youth tabs & chords
What Will The Neighbors Think? Chords
(Are You) Happy Tabs
Acid Rain Tabs
Acid Rain Intro Tabs
Any Town Tabs
Go Nowhere Tabs
U.S.A 1 Tabs
What Will The Neighbors Think? Tabs
New Aryans Ukulele
What Will The Neighbors Think Ukulele


Song lyrics



↑ Back to top | Tablatures and chords are parodies/interpretations of the original songs. You may use it for private study, scholarship, research or language learning purposes only
© 2014 AZChords.com Contact us | Privacy policy | DMCA | Add/correct tabs | Request tabs | Top 50 tabs