» » »

Solo Quedate En Silencio Tabs (ver.1)

Artists:  A B C D E F G H I J K L M N O P Q R S T U V W X Y Z # 

Solo Quedate En Silencio Tabs (ver.1)

Rbd
Rating:
5/5 (6 votes)

Hard to play? Try these video lessons and learn fast.
                
This is the latest (Jan 06) popular song from RBD (Rebelde). The entire song is in
Spanish and the most noticable lyrics are "Cinco Minutos" but the actual name of the
song is the first four words of the chorus "Solo Quedate en Silencio".
The song begins with some weird noise and then a lightly distorted guitar part. The
first note is on the and of one. With the slash before the fours and sevens I mean to
slide up to that fret. With the slashes between five and four at the end of each measure,
I just mean to bend the B a half step. I'm sure you can figure it out if you hear the
song. Just remember the the bend ends on the first beat of the next measure. So the
first note tabbed in the first three measures of each line is on the and of one.

Intro: light dist.
|---------3-----------|--------3-----------|--------3---/7-|--5-2------------|
|-----3-------3-------|----5-------5-------|----5----------|------5-3--------|
|--/4---4---4---4/5\4-|--4---4---4---4/5\4-|--4---4---4----|----------4-2-/4-|
|---------------------|--------------------|---------------|-----------------|
|---------------------|--------------------|---------------|-----------------|
|---------------------|--------------------|---------------|-----------------|

|--------3-----------|--------3-----------|--------3---/7-|--5-2------------|
|----3-------3-------|----5-------5-------|----5----------|------5-3--------|
|--4---4---4---4/5\4-|--4---4---4---4/5\4-|--4---4---4----|----------4-2-/4-|
|--------------------|--------------------|---------------|-----------------|
|--------------------|--------------------|---------------|-----------------|
|--------------------|--------------------|---------------|-----------------|


Verse 1:
G
te encuentro despierto
B                   Em               A
me dices lo siento, con una lagrima derramas
G                     B
me abrazas, me hielo, me pides un beso
Em                  A
y yo me quedo sin respirar
C                B      Em           D
solo espera un momento, solo dime no es cierto


Chorus:
     G                   Em
Solo quédate en silencio cinco minutos
     C                   D
Acaríciame un momento, ven junto a mi
       G                Em
te daré el ultimo beso, el mas profundo
     C                          D            
Guardare mis sentimientos y me iré lejos de ti


Intro 1 time


Verse 2:
G                   B
tengo tanto miedo y es que no comprendo
Em                    A
que fue lo que yo he hecho mal
G                     B
me abrazas, me hielo, me pides un beso
Em                  A
y yo me quedo sin respirar
C                B      Em              D
solo espera un momento, solo dime no es cierto


Chorus


Bridge:
        C                    B
dame tu mano, devuélveme el aire
      Em                        A
di que me amas, que no eres culpable
          Am                        D
por lo menos un momento, dime que esto no es cierto


Chorus x2

Outro
            
Hard to play? Try these video lessons and learn fast. | Correct




comments powered by Disqus
↑ Back to top | Tablatures and chords are parodies/interpretations of the original songs. You may use it for private study, scholarship, research or language learning purposes only