» » »

Somewhere Else Tabs (ver.2)

Artists:  A B C D E F G H I J K L M N O P Q R S T U V W X Y Z # 

Somewhere Else Tabs (ver.2)

Razorlight
Rating:
0/5 (0 votes)

Tabs too difficult? Try these video lessons and learn fast.
                Razorlight - Somewhere Else

Superfly108

None of the other tabs seemed to sound right so
heres what i think its played like

Ive Just Put Up The Chords Used, Listen To The Song For Strumming Pattern

Intro (Part One)

E|-------------------------------------------------------------------------|
B|------------------2------------------------------------------------------|
G|---4--------------2------------------------------------------------------|
D|---4------2-------2----4-------------------------------------------------|
A|---2------2------------4-------------------------------------------------|
E|----------0------------2-------------------------------------------------|


Intro (Part Two)

E|--------------------------------------------------------------------------|
B|--------------------------------------------------------------------------|
G|---4------9------------11-------------------------------------------------|
D|---4------9------11----11-------------------------------------------------|
A|---2------7------11-----9-------------------------------------------------|
E|------------------9-------------------------------------------------------|

Verse 1           Your an emotional wreck.....

E|-------------------------------------------------------------------------|
B|------------------2------------------------------------------------------|
G|---4--------------2------------------------------------------------------|
D|---4------2-------2----4-------------------------------------------------|
A|---2------2------------4-------------------------------------------------|
E|----------0-----------2--------------------------------------------------|

Chorus             You say i just can`t help myself........

E|-------------------------------------------------------------------------|
B|------------------2------------------------------------------------------|
G|---4--------------2------------------------------------------------------|
D|---4------2-------2----4-------------------------------------------------|
A|---2------2------------4-------------------------------------------------|
E|----------0-----------2--------------------------------------------------|

Verse 2            I met a girl, she asked me my name.........

E|----2------------2--------------2-----------------------------------------|
B|----3------------3--------------3-----------------------------------------|
G|----2-----4------2-------6------2-----------------------------------------|
D|----------4--------------6------------------------------------------------|
A|----------2--------------4------------------------------------------------|
E|--------------------------------------------------------------------------|

Chorus              But now i just can`t help myself......

E|-------------------------------------------------------------------------|
B|------------------2------------------------------------------------------|
G|---4--------------2------------------------------------------------------|
D|---4-------2------2-----4------------------------------------------------|
A|---2-------2------------4------------------------------------------------|
E|-----------0------------2------------------------------------------------|

Bridge            Now i`ll forget............

E|-------------------------2---------------------------------------------|
B|------------------2------3---------------------------------------------|
G|---4-------------2-------2---------------------------------------------|
D|---4------2------2-----------------------------------------------------|
A|---2------2------------------------------------------------------------|
E|----------0------------------------------------------------------------|

Verse 3            And when i saw you there it was the first time....

E|----2------------2--------------2-----------------------------------------|
B|----3------------3--------------3-----------------------------------------|
G|----2-----4------2-------6------2-----------------------------------------|
D|----------4--------------6------------------------------------------------|
A|----------2--------------4------------------------------------------------|
E|--------------------------------------------------------------------------|

Chorus              But now i just can`t help myself......

E|--------------------------------------------------------------------------|
B|----------------------------------------2---------------------------------|
G|---4------------------------------------2---------------------------------|
D|---4------2-----------------------------2------4--------------------------|
A|---2------2---(Repeat  3 Times)----------------4--------------------------|
E|----------0------------------------------------2--------------------------|


comments are welcome, sorry if thats a bit simple, maybe ill do a revised version with 
words and tab under the words,

enjoy!
-Louis
            
Tabs too difficult? Try these video lessons and learn fast.




comments powered by Disqus
↑ Back to top | Tablatures and chords are parodies/interpretations of the original songs. You may use it for private study, scholarship, research or language learning purposes only