» » »

In The Morning Bass tabs (ver.2)

Artists:  A B C D E F G H I J K L M N O P Q R S T U V W X Y Z # 

In The Morning Bass tabs (ver.2)

Razorlight
Rating:
0/5 (0 votes)

Tabs too difficult? Try these video lessons and learn fast.
                Razorlight - In The Morning, from album Razorlight

Standard Tuning EADG

Intro
G|-----------------------------------------------|
D|-----------------------------------------------|
A|--------------------------7-7-7-7-7-7-77-7-5-5-|
E|-12\-3-3-3-3-3-3-33-3-5-5----------------------|

G|-------------------------------------------|
D|-------------------------------------------|
A|----------------------7-7-7-7-7-7-77-7-5-5-|
E|-3-3-3-3-3-3-33-3-5-5----------------------|

Verse
G|---------------------------------------------------| 
D|---------------------------------------------------| X2
A|---------3h5---------------7-7-7-7-0h5-7-7-7-7-5-5-| 
E|-3-3-3-3-----3-3-3-3-3-5-5-------------------------|

G|---------------------------|
D|---------------------------|
A|-------------3-3-0-5-7-5-3-|
E|-5-5-5-7-5-3---------------|

Chorus
G|--------------------------------------------|
D|--------------------------------------------|
A|-------------------5-7-7-7-7-5-7-7-77-5-----|
E|-3-3-3-3-3-3-3-5-7----------------------7-5-|

G|--------------------------------------------|
D|--------------------------------------------|
A|-------------------5-7-7-7-7-5-7-7-77-7-5-5-|
E|-3-3-3-3-3-3-3-5-7--------------------------|

Verse
G|---------------------------------------------------| 
D|---------------------------------------------------| X2
A|---------3h5---------------7-7-7-7-0h5-7-7-7-7-5-5-| 
E|-3-3-3-3-----3-3-3-3-3-5-5-------------------------|

G|---------------------------|
D|---------------------------|
A|-------------3-3-0-5-7-5-3-|
E|-5-5-5-7-5-3---------------|

Chorus
G|--------------------------------------------|
D|--------------------------------------------|
A|-------------------5-7-7-7-7-5-7-7-77-5-----|
E|-3-3-3-3-3-3-3-5-7----------------------7-5-|

G|--------------------------------------------|
D|--------------------------------------------|
A|-------------------5-7-7-7-7-5-7-7-77-7-5-5-|
E|-3-3-3-3-3-3-3-5-7--------------------------|

G|----------------------------------------------------------|
D|----------------------------------------------------------|
A|-3-3-3-3-3-3-3-2-0-2---------3-5---------3-5-3-3-3-0-3-3~-|
E|---------------------3-3-3-5-----3-3-3-5------------------|

Bridge
G|-------------------------------------------|      
D|-------------------------------------------|      
A|-7-7-7-7-5-7-7-7-7-5-7-7-7-5-7-5-7-7-5-7-5-|   
E|-------------------------------------------|

G|---------------------------|
D|---------------------------| X3
A|-------------3-3-0-5-7-5-3-|
E|-5-5-5-7-5-3---------------|

G|-----------------------------|
D|-----------------------------|
A|-------------3-3-0-5-7-5-3---|
E|-5-5-5-7-5-3---------------3-|

G|--------------------------|
D|--------------------------|
A|-7-7-7-7-5-7-7-77-5-------|
E|--------------------7-5-3-|

G|---------------------------------|
D|---------------------------------|
A|-7-7-7-7-7-7-7-7-7-7-7-7-7-7-5-5-|
E|---------------------------------|

Chorus
G|----------------------------------------------------------------------|
D|----------------------------------------------------------------------|
A|-3-3-3-3-3-3-3-2-0-2---------3-5---------3-5-3-3-3-0-3-3~/---7---7\-5-|
E|---------------------3-3-3-5-----3-3-3-5------------------------------|

Outro
G|---------------------------------|
D|---------------------------------|
A|-7-7---7-7---7-5-3-3---3-2-2-3-5-|
E|---------------------------------|

G|----------------------------------------------|
D|-----7h9-7-9-----7h9-7-9----------------------|
A|-7-7---------7-7---------3-3---32-2-2-3-2-5-5-|
E|----------------------------------------------|

G|-------------------------------5----------------|
D|------9-7-9------9-7-9-------5---5--------5---7-| X4
A|-7-7-7------7-7-7------3-3-3-------2-22-3---5---|
E|------------------------------------------------|

End
G|----|
D|----|
A|-7~-|
E|----|

Thats what I think it goes like.

Adam Vaughan

/ = Slide Up
\ = Slide Down
~ = let ring
h = Hammer on
p = Pull off
            
Tabs too difficult? Try these video lessons and learn fast.




comments powered by Disqus
↑ Back to top | Tablatures and chords are parodies/interpretations of the original songs. You may use it for private study, scholarship, research or language learning purposes only