» » »

Razorlight, In The Morning Tabs (ver.1)

Artists:  A B C D E F G H I J K L M N O P Q R S T U V W X Y Z # 

In The Morning Tabs (ver.1)

Razorlight Tabs
 Rating:
4/5 (4 votes)
In The Morning lessons Tabs too difficult? Try these video lessons and learn fast
                (Intro)
This is my first ever tab, but I have decided to only tab the intro, as its the best 
I basically just changed the previous tab for this song, so thanks to Lew_Wilkie. This song 
good


e|-----12------12--12-12-12-12-12--12-12-12--|
b|-----12------12--12-12-12-12-12--15-12-12--|
g|-----12------12--12-12-12-12-12--12-12-14--|
d|-12--12--12--12--12-12-12-12-12--12-12-12--|
a|-10--10--10--10--12-12-12-12-12--12-12-12--|
e|-------------------------------------------|


e|-7--7--7--7--7-7-7-7-7-7--10-7-7--7-|
b|-8--8--8--8--8-8-8-8-8-8--8--8-10-8-|
g|-9--9--9--9--7-7-7-7-7-7--7--7-7--7-|
d|-9--9--9--9--9-9-9-9-9-9--9--9-9--9-|
a|-7--7--7--7--7-7-7-7-7-7--7--7-7--7-|
e|------------------------------------|


e|-----12------12--12-12-12-12-12--12-12-14-------|
b|-----12------12--12-12-12-12-12--15-12-12-------|
g|-----12------12--12-12-12-12-12--12-12-12-------|
d|-12--12--12--12--12-12-12-12-12--12-12-12-------|
a|-10--10--10--10--12-12-12-12-12--12-12-12-------|
e|------------------------------------------------|

e|-7--7--7--7--7-7-7-7-7-7--10-7-7--7-|
b|-8--8--8--8--8-8-8-8-8-8--8--8-10-8-|
g|-9--9--9--9--7-7-7-7-7-7--7--7-7--7-|
d|-9--9--9--9--9-9-9-9-9-9--9--9-9--9-|
a|-7--7--7--7--7-7-7-7-7-7--7--7-7--7-|
e|------------------------------------|
            
Submit corrections

comments powered by Disqus
↑ Back to top | Razorlight Tabs for In The Morning. Lyrics for acoustic guitar and electric guitar. Tablatures and chords are parodies/interpretations of the original songs. You may use it for private study, scholarship, research or language learning purposes only