» » »

Razorlight, Golden Touch Bass tabs (ver.2)

Artists:  A B C D E F G H I J K L M N O P Q R S T U V W X Y Z # 

Golden Touch Bass tabs (ver.2)

Razorlight Tabs
Rating:
5/5 (7 votes)
Golden Touch lessons Tabs too difficult? Try these video lessons and learn fast
                Razorlight – Golden Touch, from album Up All Night

Standard Tuning EADG

Verse
G|-----------------------------------------------------------------|
D|---------------------------1-2-4-------------------------------1-|
A|-----------------4-4-4-4-4-----------------------4-4-4-4-4-2-4---|
E|-5-5-5-5-4-4-4-44----------------2-2-2-2-4-4-4-44----------------|

G|------------------------------------------------------------------|
D|-2-2-2-2-1-1-1-1-----1-1-2-2-4-4----------------------------------|
A|-----------------4-4---------------------------6/-------------2-3-|
E|---------------------------------2-2-2-2-4-4-4----2-2-2-2-4-4-----|

G|----------------------------------|
D|----------------------------------|
A|-4-4-4-4-4-4-4-4-44-4-4-4-4-4-4-4-|
E|----------------------------------|

Chorus
G|----------------------------------|
D|----------------1-4-2-------------|
A|-44-4-4-4-2-2-4-------4-2---------|
E|--------------------------2-2-4-4-| 

G|-----------------2---------------|
D|---------------1---4-2-----------|
A|-4-4-4-4-2-2-4---------4-----2-2-|
E|-------------------------2-2-----| 

G|---------------------------------|
D|---------------1-4-2-------------|
A|-4-4-4-4-2-2-4-------4-2---------|
E|-------------------------2-2-4-4-| 

G|-----------------2-2-2-2------------------------------------------|
D|---------------1--------------------------------------------1-2-4-|
A|-4-4-4-4-2-2-4---------------2-2-4-4-4-4-4-4-4-4-44-4-4-4-4-------|
E|-------------------------2-2--------------------------------------|

Verse
G|-----------------------------------------------------------------|
D|---------------------------1-2-4-------------------------------1-|
A|-----------------4-4-4-4-4-----------------------4-4-4-4-4-2-4---|
E|-5-5-5-5-4-4-4-44----------------2-2-2-2-4-4-4-44----------------|

G|------------------------------------------------------------------|
D|-2-2-2-2-1-1-1-1-----1-1-2-2-4-4----------------------------------|
A|-----------------4-4---------------------------6/-------------2-3-|
E|---------------------------------2-2-2-2-4-4-4----2-2-2-2-4-4-----|

G|----------------------------------|
D|----------------------------------|
A|-4-4-4-4-4-4-4-4-44-4-4-4-4-4-4-4-|
E|----------------------------------|

Chorus
G|----------------------------------|
D|----------------1-4-2-------------|
A|-44-4-4-4-2-2-4-------4-2---------|
E|--------------------------2-2-4-4-|

G|-----------------2---------------|
D|---------------1---4-2-----------|
A|-4-4-4-4-2-2-4---------4-----2-2-|
E|-------------------------2-2-----| 

G|---------------------------------|
D|---------------1-4-2-------------|
A|-4-4-4-4-2-2-4-------4-2---------|
E|-------------------------2-2-4-4-| 

G|-----------------2-2-2-2---------|
D|---------------1-----------------|
A|-4-4-4-4-2-2-4-------------------|
E|-------------------------2-2-4-4-|

G|--------------------------------------------------------------------|
D|--------------------------------------------------------------1-2-4-|
A|-4-4-4-4-4-4-4-4-44-4-4-4-4-4-4-4-44-4-4-4-4-4-4-4-44-4-4-4-4-------|
E|--------------------------------------------------------------------|

Verse 3	 
G|-----------------------------------------------|
D|------------------1-2-4----------------------1-|
A|-----------4-4-44-----------------4-4-44-2-4---|
E|-5-5-54-4-4-------------2-2-24-4-4-------------|

G|--------------------------------------------------------------------------|
D|-2-2-21-1-1--1-12-4-------------------------------------------------------|
A|-----------4--------55-5-50-0-04-4-4-4-4-4-4-4-5-5-50-0-2-4-4-4-4-4-4-4-4-|
E|--------------------------------------------------------------------------|

Chorus X2
G|----------------------------------|
D|----------------1-4-2-------------|
A|-44-4-4-4-2-2-4-------4-2---------|
E|--------------------------2-2-4-4-| 

G|-----------------2---------------|
D|---------------1---4-2-----------|
A|-4-4-4-4-2-2-4---------4-----2-2-|
E|-------------------------2-2-----| 

G|---------------------------------|
D|---------------1-4-2-------------|
A|-4-4-4-4-2-2-4-------4-2---------|
E|-------------------------2-2-4-4-|

G|-----------------2-2-2-2-------------------------|
D|-------------------------------------------------|
A|-4-4-4-4-2-2-2-2-----------------4-4-4-4-4-4-4-4-|
E|-------------------------2-2-4-4-----------------|

End
G|---------------------------------|
D|---------------------------------| X2
A|-----------------4-4-4-4-4-4-4-4-|
E|-2-2-2-2-4-4-4-4-----------------|

G|-------------------|
D|-------------------| 
A|---------------2-4-|
E|-2-2-2-2-4-4-4-----|

Thats what I think it goes like.

Adam Vaughan
            

comments powered by Disqus
↑ Back to top | Razorlight Bass for Golden Touch. Lyrics for acoustic guitar and electric guitar. Tablatures and chords are parodies/interpretations of the original songs. You may use it for private study, scholarship, research or language learning purposes only