» » »

Ray William Johnson, Zombie Love Song Tabs (ver.1)

Artists:  A B C D E F G H I J K L M N O P Q R S T U V W X Y Z # 

Zombie Love Song Tabs (ver.1)

Ray William Johnson Tabs
 Rating:
4/5 (4 votes)
Zombie Love Song lessons Tabs too difficult? Try these video lessons and learn fast
                Chords played throughout:
Em, C, G, D (in that order)

Intro:(riff 1)

E-----------------------------10b12-10-10b12-----|
B---10--10b12b10--8h10-10b12---------------------|
G------------------------------------------------|
D------------------------------------------------|
A------------------------------------------------|
e------------------------------------------------|

Break until 0:31 (riff 2)

E------------------------------------------------|
B------------------------------------------------|
G----------------7h9r----------------------------|
D------------9-----------------------------------|
A------------------------------------------------|
e------------------------------------------------|

Break until 0:38 (riff 3)

E------------------------------------------------|
B-------10b12b10--8h10---------------------------|
G------------------------------------------------|
D------------------------------------------------|
A------------------------------------------------|
e------------------------------------------------|

Break until 0:47 (riff 4)

E------------------------------------------------|
B---10b12b10-8-10-10-10-8-10b12br10r-8-----------|
G-------------------------------------9----------|
D------------------------------------------------|
A------------------------------------------------|
e------------------------------------------------|

Bit in the chorus  (*optional on the second half of the chorus)

E------------------------------------------------|
B-----------------------------(--------8--)*-----|
G----------7h9p7---7-----7----(---7h9-9-9-)------|
D--------9-------9------9-----(-9---------)------|
A------------------------------------------------|
e------------------------------------------------|

At the end of the chorus repeat riff 1

Then at 1:21 play: (riff 5)

E-----7h10p7-------------------------------------|
B------------10-8-10b12b10-8---------------------|
G----------------------------9-------------------|
D------------------------------------------------|
A------------------------------------------------|
e------------------------------------------------|

1:31 play:

E---10b12-10b12-10b12-10b12b10-------------------|
B------------------------------------------------|
G------------------------------------------------|
D------------------------------------------------|
A------------------------------------------------|
e------------------------------------------------|

At 1:50 play riff 4 and then the chorus bit

Then at 2:24 repeat riff 5

After the "Braaaaaaaaaaaaaaiiins" bit repeat the chorus with riff 1 at the end

Solo:

E--------------------------------------------------|
B--------------------------------------------------|
G-----7h9---9s12-14b16-12-14b16b14-12-14-14b16b16b-|
D---9----------------------------------------------|
A--------------------------------------------------|
e--------------------------------------------------|

Faster part *slow vibrato

E-----------12-------------------------------------12-----------------|
B---------12--12-15-12---------------------------12--15b17-15-12-15*--|
G-12-14b16------------14-12-14b16b14-12--12-14b16---------------------|
D--------------------------------------14-----------------------------|
A---------------------------------------------------------------------|
e---------------------------------------------------------------------|

Second part of the solo (slower)

E--------------------------------------15b17-15-15-12--------------------|
B--15b17-15b17-15-12-15b17-15b17-15-12---------------15-12---------------|
G---------------------------------------------------------14-12-14b16b14-|
D------------------------------------------------------------------------|
A------------------------------------------------------------------------|
e------------------------------------------------------------------------|

E-----------------------------------------------------------------------|
B-----------------------------------------------------------------------|
G-12-14-12-14b16-14b16-14b16-14b16-14b16-14b16-14b16-14b16b14-12-12-----|
D-----------------------------------------------------------------------|
A-----------------------------------------------------------------------|
e-----------------------------------------------------------------------|

End part

E-------------------------------------|
B-------------------------------------|
G------7-----7h9----------------------|
D----9-----9--------------------------|
A-------------------------------------|
e-------------------------------------|

Key:

h = Hammer-on
p = Pull-off
b = Bend

Sorry, I know this tab may be a bit confusing during the solo, but if you listen to the 
song with it hopefully you should get it :)

I tabbed this by ear so there are probably bits that I've gotten wrong, if you could 
I hope the tab worked for you :)
            
Submit corrections

comments powered by Disqus
↑ Back to top | Ray William Johnson Tabs for Zombie Love Song. Lyrics for acoustic guitar and electric guitar. Tablatures and chords are parodies/interpretations of the original songs. You may use it for private study, scholarship, research or language learning purposes only