>
 >
Shelter

Shelter Chords

Ray Lamontagne - Shelter chords, tabs, tablatures, lyrics

Guitar lessons | Add/correct | Request | Top 50 tabs Artists:  A B C D E F G H I J K L M N O P Q R S T U V W X Y Z 0-9

Shelter Chords – Ray Lamontagne

CD, Sheet music, Poster

Do you like Shelter? Share with your friends now
ChordsChords v2Chords v3Chords v4Ukulele
Ray LaMontagne

Chords - ( ) are optional,  are hammered-on occasionally

----C--F/D--G--Cadd9/B--Am--E7--F---Bb--D#---

e|--0---1---3-----0-----0---0--(0)-------------------------------|
B|--1---1---0-----1-----1---3---1---3---4------------------------|
G|--0---2---0-----0-----2---1----3---3------------------------|
D|---0---0-----0-----2---2---3---3---1------------------------|
A|--3--(0)--2-----2-----0---2--(3)--1----------------------------|
E|----------3---------------0------------------------------------|

Intro - [C] [F/D] [G] [C] [Cadd9/B] [Am] [E7] [F] [C] [G] X2

[C]I guess you [F/D]don't need it [G]
I guess you don't [C]want me [Cadd9/B]to repeat it [Am]
But everything I [E7]have to give I'll [F]give to you [C] [G]
[C]It's not [F/D]like we planned it [G]
You tried to stay, [C]but you [Cadd9/B]could not stand it [Am]
To see me shut down [E7]slow
As though it was an [F]easy thing to do [C]
[G]Listen when

[C]All of this around[F] us'll fall over
I tell you what we're gonna do[C] [G]
[C]You will [E]shelter me [F]my love[C] [G]
[C]And I [F\D]will [G]shelter yo[F]u
I will shel[C]ter you [F/D]
[G] [C] [Cadd9/B] [Am] [E7] [F] [C] [G]

[C]I left [F/D]you heartbroken,
[G]but not until [C]those very [Cadd9/B]words were spoken[Am]
Has anybody [E7]ever made such a [F]fool out of you [C] [G]
[C]It's hard [F/D]to believe it [G]
Even as my [C]eyes [Cadd9/B]do see it [Am]
The very things that [E7]make you live are [F]killing you [C]
[G]Listen when

[C]All of this around[F] us'll fall over
I tell you what we're gonna do[C] Hey[G]
[C]you will [E]shelter me [F]my love [C] [G]
[C]I [Bb]will [F]shelter you [D#]
I will [C]shelter you [Bb]
I will [F]shelter you [D#]
I will [C]shelter you [Bb]
I will [F]shelter you [D#]
[C] [F/D] [G] [C] [Cadd9/B] [Am] [E7] [F] [C]

[G]Listen When
[C]All of this around[F] us'll fall over
I tell you what we're gonna do[C] Hey[G]
[C]you will [E]shelter me [F]my love [C] [G]
[C]I [Bb]will [F]shelter you [C]
If you [F]shelter me too[C]
I will [F]shelter [C]you
I will [F]shelter [C]you


Little F riff that's occasionally used:

e|--------------0------------------------------------------------|
B|--1---1-------1------------------------------------------------|
G|--0h2-0--(0)--0------------------------------------------------|
D|--3---3---0---2------------------------------------------------|
A|--------------3------------------------------------------------|
E|---------------------------------------------------------------|





Comments


Popular Ray Lamontagne tabs & chords
Are We Really Through Chords
Beg Steal Borrow Chords
Empty 1 Chords
Forever My Friend Chords
Narrow Escape Chords
Roadhouse Girl Chords
Sarah Chords
Shelter 1 Chords
Simple Consolation Chords
Within You Chords


Song lyrics



↑ Back to top | Tablatures and chords are parodies/interpretations of the original songs. You may use it for private study, scholarship, research or language learning purposes only
© 2014 AZChords.com Contact us | Privacy policy | DMCA | Add/correct tabs | Request tabs | Top 50 tabs