» » »

That Great Love Sound Bass tabs (ver.1)

Artists:  A B C D E F G H I J K L M N O P Q R S T U V W X Y Z # 

That Great Love Sound Bass tabs (ver.1)

Raveonettes
Rating:
0/5 (0 votes)

Hard to play? Try these video lessons and learn fast.
                So the song basicall consists of trhee notes being A#, D#, and F. There is reall three 
riff throughout the song, but do sometimes change.

Verse
|-------------------------------|
|-------------------------------| x 8
|----------------6-6-6-6-8-8-6-6|
|6-6-6-6-6-6-6-6----------------|

Prechorus
|---------------------------------------------------------------|
|---------------------------------------------------------------|
|----------------6-6-6-6-6-6-6-6-----------------6-6-6-6-6-6-6-6|
|6-6-6-6-6-6-6-6-----------------6-6-6-6-6-6-6-6----------------|
(on the end of that there are 16 D# on the A string)


So this part is the chorus and will vary at how many notes are in it
Chorus
|-------------------------------------------------------------------|
|-------------------------------------------------------------------| x 2
|-----------------6666666666666666-8888888888888888-6666666666666666|
|6666666666666666---------------------------------------------------|

Verse x4
|-------------------------------|
|-------------------------------|
|----------------6-6-6-6-8-8-6-6|
|6-6-6-6-6-6-6-6----------------|

Prechorus
|---------------------------------------------------------------|
|---------------------------------------------------------------|
|----------------6-6-6-6-6-6-6-6-----------------6-6-6-6-6-6-6-6|
|6-6-6-6-6-6-6-6-----------------6-6-6-6-6-6-6-6----------------|
(on the end of that there are 16 D# on the A string)


Chorus x2
|-------------------------------------------------------------------|
|-------------------------------------------------------------------|
|-----------------6666666666666666-8888888888888888-6666666666666666|
|6666666666666666---------------------------------------------------|

Verse x3
|-------------------------------|
|-------------------------------|
|----------------6-6-6-6-8-8-6-6|
|6-6-6-6-6-6-6-6----------------|

Chorus x2
|-------------------------------------------------------------------|
|-------------------------------------------------------------------|
|-----------------6666666666666666-8888888888888888-6666666666666666|
|6666666666666666---------------------------------------------------|
with 32 D#'s at the end and play until the end)

End
|------------------------|
|------------------------|
|------------------------|
|6~~~~~~~~~~~~~~~~~~~~~~~|
            
Hard to play? Try these video lessons and learn fast. | Correct




comments powered by Disqus
↑ Back to top | Tablatures and chords are parodies/interpretations of the original songs. You may use it for private study, scholarship, research or language learning purposes only