>
 >
That Great Love Sound

That Great Love Sound Guitar Tabs

Raveonettes - That Great Love Sound chords, tabs, tablatures, lyrics

Guitar lessons | Add/correct | Request | Top 50 tabs Artists:  A B C D E F G H I J K L M N O P Q R S T U V W X Y Z 0-9

That Great Love Sound Guitar Tabs – Raveonettes

CD, Sheet music, Poster

Do you like That Great Love Sound? Share with your friends now
Tabs

 BAND: Raveonettes



bass intro

e|---------------------------------|
B|---------------------------------|
G|---------------------------------|
D|---------------------------------|
A|-----------------6-6-6-6-8-8-6-6-|
E|-6-6-6-6-6-6-6-6-----------------|


Bb Eb F 
(NOTE: these chords may be played as 'D' shapes rather than 'F' shapes. 
It's hard to tell. With the 'F' shapes below, stress the higher notes more)

e|-6-6-6-6-6-6-6-6-6-6-6-6-8--8--6-6-|
B|-6-6-6-6-6-6-6-6-8-8-8-8-10-10-8-8-|
G|-7-7-7-7-7-7-7-7-8-8-8-8-10-10-8-8-|
D|-8-8-8-8-8-8-8-8-8-8-8-8-10-10-8-8-| X3
A|-8-8-8-8-8-8-8-8-6-6-6-6-8--8--6-6-|
E|-6-6-6-6-6-6-6-6-------------------|


"Changing your stut..."

e|---------------------------------|
B|---------------------------------|
G|---------------------------------| X4
D|---------------------------------|
A|-----------------6-6-6-6-8-8-6-6-|
E|-6-6-6-6-6-6-6-6-----------------|


"I only want to tell you..."

e|---------------------------------|
B|---------------------------------|
G|---------------------------------|
D|---------------------------------| X2
A|-6-6-6-6-6-6-6-6-8-8-8-8-8-8-8-8-|
E|---------------------------------|

e|---------------------------------------------------------------------|
B|---------------------------------------------------------------------|
G|--------------------------------------8-8-8-8-8-8-8-8----------------|
D|-8-8-8-8-8-8-8-8-10-10-10-10-10-10-10--------------------------------|
A|---------------------------------------------------------------------|
E|-----------------------------------------------------8-8-8-8-8-8-8-8-|

"So I walk right up to you..."

Bb X16
Eb X16
F  X16
Eb X16

"Can't you feel it all come down..."

Bb X16
Eb X16
F  X16
Eb X16



"Talking to you makes me want to shake and shout..."

Bass

e|---------------------------------|
B|---------------------------------|
G|---------------------------------|  X4
D|---------------------------------|
A|-----------------6-6-6-6-8-8-6-6-|
E|-6-6-6-6-6-6-6-6-----------------|



"You can never want me the same way I want you..."

e|-------------------------------------------------------------------------
B|-------------------------------------------------------------------------
G|-8-8-8-8-8-8-8-8---------------------------------------------------------
D|-----------------10-10-10-10-10-10-10-10-8-8-8-8-8-8-8-8-7-7-7-7-7-7-7-7-
A|-------------------------------------------------------------------------
E|-------------------------------------------------------------------------

---------------------------------------------------------------------------|
---------------------------------------------------------------------------|
---------------------------------------------------------------------------|
---------------------------------------------------------------------------|
-10-10-10-10-10-10-10-10-8-8-8-8-8-8-8-8-6-6-6-6-6-6-6-6-8-8-8-8-8-8-8-8---|
---------------------------------------------------------------------------|

"So I walk right up to you..."

Bb X16
Eb X16
F  X16
Eb X16

"Can't you feel it all come down..."

Bb X16
Eb X16
F  X16
Eb X16


Bb Eb F

e|-6-6-6-6-6-6-6-6-6-6-6-6-8--8--6-6-|
B|-6-6-6-6-6-6-6-6-8-8-8-8-10-10-8-8-|
G|-7-7-7-7-7-7-7-7-8-8-8-8-10-10-8-8-|
D|-8-8-8-8-8-8-8-8-8-8-8-8-10-10-8-8-| X3
A|-8-8-8-8-8-8-8-8-6-6-6-6-8--8--6-6-|
E|-6-6-6-6-6-6-6-6-------------------|


"So I walk right up to you..."

Bb X16
Eb X16
F  X16
Eb X16

"Can't you feel it all come down..."

Bb X16
Eb X16
F  X16
Eb X16


"That. Great. Love. Sound"
  Eb    Eb     Eb     Eb


"Can't you feel it all come down..."

Bb X16
Eb X16
F  X16
Eb X16

Bb





Comments


Popular Raveonettes tabs & chords
Blush Chords
Here Comes Mary Chords
With My Eyes Closed Chords
Attack Of The Ghost Riders 2 Tabs
Dead Sound Tabs
Dead Sound Ukulele
Honey I Never Had You Ukulele
Ode To La Ukulele
The Enemy Ukulele
The Heavens Ukulele


Song lyrics



↑ Back to top | Tablatures and chords are parodies/interpretations of the original songs. You may use it for private study, scholarship, research or language learning purposes only
© 2014 AZChords.com Contact us | Privacy policy | DMCA | Add/correct tabs | Request tabs | Top 50 tabs