» » »

Ratt, Tell The World Bass tabs (ver.1)

Artists:  A B C D E F G H I J K L M N O P Q R S T U V W X Y Z # 

Tell The World Bass tabs (ver.1)

Ratt Tabs
 Rating:
3.4/5 (5 votes)
Tell The World lessons Tabs too difficult? Try these video lessons and learn fast
1
                Album:Ratt & Roll 81-91
Bassist:Robbie Crane

I'm pretty sure this tab is correct. For the verse, you can do a couple of things. 
You can either let the one note ring, like I put, or you can go with the bass 
drum.

Key:
x = times a number

*Guitar Intro*

Intro
Gb:------------------------|
Db:------------------------|
Ab:----------------------3*|
Eb:5*------5x58-5-3-4-5*---|

Verse
Gb:-----------------------------------|
Db:-----------------------------------|
Ab:-----------------------------------|
Eb:5*---------------------------------|

Chorus
Gb:------------------|------------------|------------------|------------------|
Db:------------------|------------------|------------------|------------------|
Ab:------------------|------------------|------------------|------------------|
Eb:000000-5*-00000-3*|000000-5*-00000-3*|000000-5*-00000-3*|000000-5*-00000-3*|

After Chorus
Gb:----|
Db:----|
Ab:----|
Eb:5x64|

Verse

Chorus

Solo
Gb:------|----5-----3-------------------------9-----7--------------------|
Db:------|----------------5-----3-------------------------9-----7--------|
Ab:------|3-3---3-3---3-3---3-3---3-3-3-3-7-7---7-7---7-7---7-7---7-7-7-7|
Eb:00--00|---------------------------------------------------------------|

Gb:----5-----3-------------------------9-----7--------------------|
Db:----------------5-----3-------------------------9-----7--------|
Ab:3-3---3-3---3-3---3-3---3-3-3-3-7-7---7-7---7-7---7-7---7-7-7-7|
Eb:---------------------------------------------------------------|

Gb:----5-----3-------------------------9-----7--------------------|
Db:----------------5-----3-------------------------9-----7--------|
Ab:3-3---3-3---3-3---3-3---3-3-3-3-7-7---7-7---7-7---7-7---7-7-7-7|
Eb:---------------------------------------------------------------|

Gb:----5-----3--------------------|
Db:----------------5-----3--------|
Ab:3-3---3-3---3-3---3-3---3-3-3-3|
Eb:-------------------------------|

Chorus

Chorus

Break

End
Gb:---------------------------------|
Db:--------------------7-----7-----7|
Ab:---------------------------------|
Eb:5-----------3*--5-5---5-5---5-5--|

That's it. Awesome song by Ratt. I already put it in order for you, so you just 
            
Submit corrections

comments powered by Disqus
↑ Back to top | Ratt Bass for Tell The World. Lyrics for acoustic guitar and electric guitar. 1 Tablatures and chords are parodies/interpretations of the original songs. You may use it for private study, scholarship, research or language learning purposes only