» » »

Ratt, Nobody Rides For Free Tabs (ver.1)

Artists:  A B C D E F G H I J K L M N O P Q R S T U V W X Y Z # 

Nobody Rides For Free Tabs (ver.1)

Ratt Tabs
 Rating:
4/5 (6 votes)
Nobody Rides For Free lessons Tabs too difficult? Try these video lessons and learn fast
1
                -------------------------------------------------------------------------------
-------------------------------------------------------------------------------


Tuning: Standard

e|---------------------------------------------------------------------------|
B|-----7-----7-----7-----7-----7---------------------------------------------|
G|---6-----6-----6-----6-----6-----------------------------------------------|
D|-4-----4-----4-----4-----4-------------------------------------------------|
A|---------------------------------------------------------------------------|
E|---------------------------------------------------------------------------|
Pm........................Let the last 3 notes ring, then repeat
e|---------------------------------------------------------------------------|
B|---------------------------------------------------------------------------|
G|------2-1------------------------------------------------------------------|
D|-4-4--2-2--x-x-------------------------------------------------------------|
A|-4-4-------x-x-------------------------------------------------------------|
E|-2-2-------x-x-------------------------------------------------------------|
 Guitar 2 Chords over solo
e|-12------------------------------------------------------------------------|
B|-15b17--17p16h17-16p14h16-14p12h14p12--------------------------------------|
G|--------------------------------------9-9/11~--14b15-11-14b15-11----11-14--|
D|-----------------------------------------------------------------14--------|
A|---------------------------------------------------------------------------|
E|---------------------------------------------------------------------------|
 Guitar 1 Solo
e|-------12-12h14----14~-----------------------------------------------------|
B|-12-14----------14---------------------------------------------------------|
G|---------------------------------------------------------------------------|
D|---------------------------------------------------------------------------|
A|---------------------------------------------------------------------------|
E|---------------------------------------------------------------------------|

e|--0-------------------------------------------5----------------------------|
B|--0-------7-----7-5-------7-----7-5---------5---5---------5-----5----------|
G|--3-----6-----6-----6---6-----6-----6-----7-------7-----4-----4------------|
D|--4---4-----4---------4-----4-----------7-----------7-7-----6-----4-2------|
A|--4-----------------------------------5------------------------------------|
E|--2------------------------------------------------------------------------|
        Riff 1 pm.........................................
e|----|------------------------------------------|---------------------------|
B|----|----------------3~---------2-4/5\4--------|---------2~----------------|
G|-6--|----------------2~-------4---------2/4\2~-|---------2~----------------|
D|-4--|-7--7--7---------------4------------------|-4-4-2-4-2~----------------|
A|----|-5--5--5--0-1-2---------------------------|-4-4-2-4-0~----------------|
E|----|-------------------0-2--------------------|-2-2-0-2-------------------|
       Riff 2 1st part    pm..                    2nd part
e|-----0~-----------0~---|--------0-----0------------------------------------|
B|-----0~-----------0~---|------0---------0----------------------------------|
G|-----3~---7---4--------|----3-------3------7----3-4------------------------|
D|--4-------7---4--------|--4-------2--------7----3-4------------------------|
A|--4-------5---2--------|--4-------2--------5----1-2------------------------|
E|--2--------------------|--2-------0----------------------------------------|
                          Last time
e|-----------------14----12----9----9----------------------------------------|
B|--------------14----14----12---10---10\9~----------------------------------|
G|--------13-14--------------------------------------------------------------|
D|--14-16------------------------------------9-7\6~-9\7----------------------|
A|------------------------------------------------------9~-------------------|
E|---------------------------------------------------------------------------|
 Solo
e|---------------------------------------------------------------------------|
B|---------------------------------------------------------------------------|
G|--9---7p6~-----------------------------------------------------------------|
D|--9---7~-------------------------------------------------------------------|
A|---------------------------------------------------------------------------|
E|---------------------------------------------------------------------------|

Sorry, but I don't have the rest of the solo yet. If anyone has any questions or
wants me to try and figure out the rest of the solo, just send me an E-mail.
Otherwise, happy shredding!

| /  slide up
| \  slide down
| h  hammer-on
| p  pull-off
| ~  vibrato
| +  harmonic
| x  Mute note
===============================================================================
            
Submit corrections

comments powered by Disqus
↑ Back to top | Ratt Tabs for Nobody Rides For Free. Lyrics for acoustic guitar and electric guitar. 1 Tablatures and chords are parodies/interpretations of the original songs. You may use it for private study, scholarship, research or language learning purposes only