» » »

Ratm, Ashes In The Fall Tabs (ver.1)

Artists:  A B C D E F G H I J K L M N O P Q R S T U V W X Y Z # 

Ashes In The Fall Tabs (ver.1)

Ratm Tabs
Rating:
0/5 (0 votes)
Ashes In The Fall lessons Tabs too difficult? Try these video lessons and learn fast
                


TUNING: drop d (D,A,D,G,B,E)



     * Keep Wah Pedal on and all the way back
       for the intro verse and chorus

       Set Whammy Pedal To Sound Note
       2 Octaves Higher For Riffs 1, 2, and 3

     RIFF 1:

    E|---5---------5--------5------------|
    B|-----------------------------------|
    G|-----------------------------------| Repeat Twice
    D|-----------------------------------|
    A|-----5---5------5---5--------------|
    D|-----------------------------------|


     RIFF 2:

    E|---6--------6-----------6-----|
    B|------------------------------| Repeat Twice
    G|------------------------------|
    D|------------------------------|
    A|-----5---5------5----5--------|
    D|------------------------------|


     RIFF 3:

    E|----8--------8----------8------------|
    B|-------------------------------------| Repeat Twice
    G|-------------------------------------|
    D|-------------------------------------| Than Repeat Riff 2 again
    A|------5---5-----5----5---------------|
    D|-------------------------------------|



     VERSE:

     Use Delay and Whammy Pedal set to raise the
     Pitch 2 octaves let notes ring then
     slowly pull the Whammy Pedal back
     lowering the pitch

    E|---10~~~~----8~~~~--|
    B|--------------------|
    G|--------------------|
    D|--------------------|
    A|--------------------|
    D|--------------------|


    CHORUS: (Kick off Whammy Pedal, but keep Wah on)

    E|-----------------------|
    B|---0----------0--------| Repeat 4 Times
    G|---0----------0--------|
    D|---2----------2--------|
    A|---3----------3--------|
    D|-----------------------|

     OUTRO: (3:10)

    E|---------------------------|
    B|---------------------------|
    G|---------------------------| Repeat Twice
    D|--7---------7---------7----|
    A|---------------------------|
    D|----0----0-----0----0------|


    E|---------------------------|
    B|---------------------------|
    G|---------------------------| Repeat Twice
    D|-3-------3---------3-------|
    A|---------------------------|
    D|---0---0----0---0----------|


     Like Ashes in the fall.. at (3:55)

    E|--------------------------------------|
    B|--------------------------------------|
    G|-11-----------------------------------|
    D|---12---------------------------------|
    A|--------------------------------------|
    D|--------------------------------------|









-¿aditya¿-
            
Submit corrections

comments powered by Disqus
↑ Back to top | Ratm Tabs for Ashes In The Fall. Lyrics for acoustic guitar and electric guitar. Tablatures and chords are parodies/interpretations of the original songs. You may use it for private study, scholarship, research or language learning purposes only