>
 >
Tacobel Canon

Tacobel Canon Guitar Tabs

Ratatat - Tacobel Canon chords, tabs, tablatures, lyrics

Guitar lessons | Add/correct | Request | Top 50 tabs Artists:  A B C D E F G H I J K L M N O P Q R S T U V W X Y Z 0-9

Tacobel Canon Guitar Tabs – Ratatat

CD, Sheet music, Poster

Do you like Tacobel Canon? Share with your friends now
Tabs
-------------------------------------------------------------------------------
-------------------------------------------------------------------------------


Tuning: Standard

Intro

e|---------------------------------------------------------------------------|
B|---------------------------5-----------------------------5-----------------|
G|----7-----4/7-------5-------------7---------------5------------------------|
D|-5-----4--------2-2------------5------7--9\0-------------------------------|
A|-----------------------0-0------------9-------0-0----3-3-------------------|
E|---------------------------------------------------------------------------|

e|---------------------------------------------------------3-----------------|
B|----7-----3/8-------5------5------7---------------5------5-----------------|
G|----7-----4/7-------5------5------7---------------5------5-----------------|
D|-5-----7--------2-2------------5------7--9\0-------------5-----------------|
A|-------9---------------0-0------------9-------0-0----3-3-------------------|
E|---------------------------------------------------------------------------|

And then

e|---------------------------------------------------------------------------|
B|---------------5-7-8-----------------------5-8-5---------------------------|
G|----7---5-4--4-------4b5--2--------7---5-4-------4-------------------------|
D|-7----7---------------------2/5-4----7-------------7-5--2-4-5--------------|
A|--------------------------3-----5-----------------------3-5-7--------------|
E|---------------------------------------------------------------------------|

e|----5---5-3----------------------------------------------------------------|
B|------5--------5-7-8-----------------------5-8-5---------------------------|
G|-2--7---5-4--4-------4b5--2--------7---5-4---------------------------------|
D|-4----7---------------------2/5-4----7-----------7b9-7-5--2-4-5------------|
A|--------------------------3-----5-------------------------3-5-7------------|
E|---------------------------------------------------------------------------|

e|----5---5-3----------------------------------------------------------------|
B|------5--------5-7-8-----------------------5-8-5---------------------------|
G|-2--7---5-4--4-------4b5--2--------7---5-4-------0------9--9---------------|
D|-4----7---------------------2/5-4----7-------------4----10-10--------------|
A|--------------------------3-----5--------------------7--10-10--------------|
E|--------------------------------------------------------8--8---------------|

Chorus
Part 1
e|------------7---10/12-10----------------------10---8-7---------------------|
B|-8---8-10-----7----------13-12-----10---12-------8-----8-------------------|
G|---7------9---------------------------9----11------------7-----------------|
D|--------------------------------12-------------------------10--------------|
A|---------------------------------------------------------------------------|
E|---------------------------------------------------------------------------|

e|----------------------------8----5---7---8---5---8---8---------------------|
B|---------7----8-------7h8----------5---5-------5---------------------------|
G|---------------------------------------------------5-----------------------|
D|------10---10------10----------------------7-------------------------------|
A|---10-----------10---------------------------------------------------------|
E|-8------------------------8----5-------------------------------------------|

e|------------7---10/12-10----------------------10---8-7---------------------|
B|-8---8-10-----7----------13-12-----10---12-------8-----8-------------------|
G|---7------9---------------------------9----11------------7-----------------|
D|--------------------------------12-------------------------10--------------|
A|---------------------------------------------------------------------------|
E|---------------------------------------------------------------------------|

e|-------5---8---------------------------------------------------------------|
B|---5-----5--------5-----5-------7---8-5------------------------------------|
G|-----5----------5-----5---5---5---5-----5-4--------------------------------|
D|-7------------7-----7-------5---------------5------------------------------|
A|----------------------------------------------7-3--------------------------|
E|---------------------------------------------------------------------------| x2

Solo

e|---------------------------------------------------------------------------|
B|-15-12----12--15/17------------------------12-15---------12-10-------------|
G|-------14-----------14b16rb14-12-14--14b16-------pb12r11-------pb11--------|
D|---------------------------------------------------------------------------|
A|---------------------------------------------------------------------------|
E|---------------------------------------------------------------------------|

e|---------------------------------------------------------------------------|
B|----10-12-13--1-8-10-12--12-17-12------------------------------------------|
G|-r9-------------------------------14\5-5/12~-------------------------------|
D|---------------------------------------------------------------------------|
A|---------------------------------------------------------------------------|
E|---------------------------------------------------------------------------|

e|---------------------------------------------------------------------------|
B|-----------------------------8---------------------------------------------|
G|-11--------12-pb9r7-5-5--7-7---pb7r5-4--4----------------------------------|
D|----5-4-5---------------------------------7-------7-9-10-------------------|
A|--------------------------------------------pb9r7--------------------------|
E|---------------------------------------------------------------------------|

e|------------------------------8--------------------------------------------|
B|---8-10-12--12-17-12-10-1-1-8----------------------------------------------|
G|---9-11-12--12-16-12-11-0-0-5----------------------------------------------|
D|---------------------------------------------------------------------------|
A|---------------------------------------------------------------------------|
E|-8-------------------------------------------------------------------------|

Bridge

e|--------------------------------------------------------------12-----------|
B|--------------------------------------------------------------8------------|
G|-0-------------------9-------9-----0--11--------------9-------9------------|
D|----+12--7--9/12-----10------10-------12--7--9\0------10------10-----------|
A|---------9-------7-7-----0-0--------------9-------0-0----------------------|
E|----------------------------------------------------------8-8--------------|

Chorus
Part 2 (Lower Harmony)
e|---------------------------------------------------------------------------|
B|---------------7-8-7--------7---8---10----5-3-0----------------------------|
G|---4---5---7---------9-7------7---------4-------0--------------------------|
D|-5---5---5---0------------7-------7---------------0------------------------|
A|---------------------------------------------------------------------------|
E|---------------------------------------------------------------------------|

e|---------------------------------------------------------------------------|
B|-------3---5--------------------------5--------5---5-----------------------|
G|-----5---5--------------5-----5---7-5------5-------------------------------|
D|---5------------5-4-5-----------7------------7---7-------------------------|
A|-3------------3-------3----/7------------7---------------------------------|
E|---------------------------------------------------------------------------|

e|---------------------------------------------------------------------------|
B|---------------7-8-7-------7---8---10---5-3---3----------------------------|
G|---4---5---7---------9-7-----7--------4-----4---0--------------------------|
D|-5---5---5---0-----------7-------7-----------------------------------------|
A|---------------------------------------------------------------------------|
E|---------------------------------------------------------------------------|

e|---------------------------------------------------------------------------|
B|---------------------------------------------------------------------------|
G|-------------9---------------------4-5-5-5-0-------------------------------|
D|----7----------------------2-5---5-----------2-----------------------------|
A|--------10-7------7-0--0-3-----3---------------3-0-------------------------|
E|-/8---8--------/8----------------------------------2-----------------------|

Then back to the lead part of the chorus, which is 

e|------------7---10/12-10----------------------10---8-7---------------------|
B|-8---8-10-----7----------13-12-----10---12-------8-----8-------------------|
G|---7------9---------------------------9----11------------7-----------------|
D|--------------------------------12-------------------------10--------------|
A|---------------------------------------------------------------------------|
E|---------------------------------------------------------------------------|

e|----------------------------8----5---7---8---5---8---8---------------------|
B|---------7----8-------7h8----------5---5-------5---------------------------|
G|---------------------------------------------------5-----------------------|
D|------10---10------10----------------------7-------------------------------|
A|---10-----------10---------------------------------------------------------|
E|-8------------------------8----5-------------------------------------------|

e|------------7---10/12-10----------------------10---8-7---------------------|
B|-8---8-10-----7----------13-12-----10---12-------8-----8-------------------|
G|---7------9---------------------------9----11------------7-----------------|
D|--------------------------------12-------------------------10--------------|
A|---------------------------------------------------------------------------|
E|---------------------------------------------------------------------------|

e|-------5---8--------------------------------------3------------------------|
B|---5-----5--------5-----5-------7---8-5-----------3------------------------|
G|-----5----------5-----5---5---5---5-----5-4-------4------------------------|
D|-7------------7-----7-------5---------------5-----5------------------------|
A|----------------------------------------------7-3-5------------------------|
E|--------------------------------------------------3------------------------|

That's it! Brilliant, right? Have fun with it and LONG LIVE RATATAT!

************************************

| /   slide up
| \   slide down
| h   hammer-on
| p   pull-off
| ~   vibrato
| +   harmonic
| x   Mute note
| b   Bend
| pb  Pre-bend
| br  Bend release
| pbr Pre-bend release
| brb Bend release bend

************************************





Comments


Popular Ratatat tabs & chords
Hotremix Bass Tabs
Lex Bass Tabs
Bare Feast Tabs
Breaking Away Tabs
El Pico Tabs
Kennedy Tabs
Loud Pipes Tabs
Spanish Armada Tabs
Tropicana Tabs
Wildcat 3 Tabs


Song lyrics



↑ Back to top | Tablatures and chords are parodies/interpretations of the original songs. You may use it for private study, scholarship, research or language learning purposes only
© 2014 AZChords.com Contact us | Privacy policy | DMCA | Add/correct tabs | Request tabs | Top 50 tabs