» » »

Ratatat, Kennedy Tabs (ver.1)

Artists:  A B C D E F G H I J K L M N O P Q R S T U V W X Y Z # 

Kennedy Tabs (ver.1)

Ratatat Tabs
Rating:
5/5 (2 votes)
Kennedy lessons Tabs too difficult? Try these video lessons and learn fast
                Ratatat - Kennedy

Standard tuning

The main guitar riff goes like this:
-3--2--2--2--3--3--3--3---|
-3--3--3--3--3--3--5--5---|
-4--4--4--4--4--4--4--4---|
--------------------------|
--------------------------|
--------------------------|

repeated throughout the song.

Then at 0:52:
Guitar 1:
-0--2\-------------0--|
-------3-3---3---3----|
-----------4---4------|
----------------------|
----------------------|
----------------------|

Guitar 2 (listen for rhythm):
p.m......................
-----------------------------|
------3-333-3---3---3--5--5\-|
--------------4---4----------|
-----------------------------|
-----------------------------|

At 2:36:
Guitar plays main riff while two guitars play this:
Guitar 1:
----------------------------------9-10\----10\-------------|
--------------------------12p10----------10----------------|
-7-6---7-6-7------7-7-6--------11---------------7--7p6-7---|
-----9-------0-0--------9--------------------------------9-|
-----------------------------------------------------------|
-----------------------------------------------------------|
Guitar 2:
-----------------------------------9-10\---10\-------------|
----------------------------------------10-----7--7-5-7-0--|
-7-6---7-7-7-----7-7-6----11p9-----------------------------|
-----9-------0-0-------9-------12--------------------------|
-----------------------------------------------------------|
-----------------------------------------------------------|

...or some variation on that.

And there ya have it
@gi@ntr0b0t
9/10/09
            

comments powered by Disqus
↑ Back to top | Ratatat Tabs for Kennedy. Lyrics for acoustic guitar and electric guitar. Tablatures and chords are parodies/interpretations of the original songs. You may use it for private study, scholarship, research or language learning purposes only