» » »

Ratatat, Five Tabs (ver.1)

Artists:  A B C D E F G H I J K L M N O P Q R S T U V W X Y Z # 

Five Tabs (ver.1)

Ratatat Tabs
Rating:
4/5 (2 votes)
Hard to play? Try these video lessons and learn fast.
                Ratatat - Five



e|-------------------------------------------------|
B|-------------------------------------------------|
G|-----7--9/11--9-----9--12--11--9--7--6-----------|
D|--9-------------------------------------7--------|
A|-------------------------------------------------|
E|-------------------------------------------------|

e|-------------------------------------------------|
B|-------------------------------------------------|
G-------7--9/11--9---------------------------------|
D|-7/9--------------7-9--7-9--7-9--7-9999----------|
A|-------------------------------------------------|
E|-------------------------------------------------|

e|-------------------------------------------------|
B|-------------------------------------------------|
G|-----7--9/11--9-----9--12--11--9--7--6-----------|
D|--9-------------------------------------7777/9---|
A|-------------------------------------------------|
E|-------------------------------------------------|

e|-------------------------------------------------|
B|----------------------12--10---------------------|
G|-----7--9/11--9-----9----------12--11------------|
D|--9----------------------------------------------|
A|-------------------------------------------------|
E|-------------------------------------------------|




************************************

| /   slide up
| \   slide down
| h   hammer-on
| p   pull-off
| ~   vibrato
| +   harmonic
| x   Mute note
| b   Bend
| pb  Pre-bend
| br  Bend release
| pbr Pre-bend release
| brb Bend release bend

************************************
            

comments powered by Disqus
↑ Back to top | Ratatat Tabs for Five. Lyrics for acoustic guitar and electric guitar. Tablatures and chords are parodies/interpretations of the original songs. You may use it for private study, scholarship, research or language learning purposes only