>
 >
El Pico

El Pico Bass Tabs

Ratatat - El Pico chords, tabs, tablatures, lyrics

Guitar lessons | Add/correct | Request | Top 50 tabs Artists:  A B C D E F G H I J K L M N O P Q R S T U V W X Y Z 0-9

El Pico Bass Tabs – Ratatat

CD, Sheet music, Poster

Do you like El Pico? Share with your friends now
Bass TabsTabs
El Pico by Ratatat
My first tab (correction)
= is Hold
\ is Slide Down
PART A
G--------------------|--------7===7-|------------|------------|
D--------10-9h10p9---|7=====7-------|------------|------------|
A-7======---------10-|--------------|7===7-9===9-|10==10\5--5-| x4
E--------------------|--------------|------------|------------|
  1 2 3  +  4     +   1 + 2 + 3 + 4  1 2 + 3 4 +  1 2 +  3  4 
PART B
G---------|---------|---------|-----------|-First Measure-----|
D---------|-----7=9=|=--------|-----------|---of Part B-------|
A-------7=|=10==----|---------|-----10-12\|(7)----------------| x4
E-8=====--|---------|-5=====8=|=10==------|(8)----------------|
  1 2 3 4   1 2 3 4   1 2 3 4   1 2 3  4
PART C
G--------------------|----------------------------------------|
D--------------------|----------------------------------------|
A--------------------|--------------------10------------------| x4
E---8=====7=8-8===10-|-12=====10=12-12====--------------------|
    1 + 2 + 3 + 4 +    1 + 2  +  3  +  4  +
FILL
G--------------|----------------------------------------------|
D--------------|----------------------------------------------|
A-----------10=|---------10=----------------------------------|
E--10=======---|8========-------------------------------------|
   1  2  3  4   1  2  3  4

A x4
B x4
C x4
FILL
A x8
B x4
C x2
DROPOUT
C x12

Thanks to Epylinkn





Comments


Popular Ratatat tabs & chords
Kennedy Bass Tabs
Lex Bass Tabs
Wildcat Bass Tabs
Bare Feast Tabs
Cherry 1 Tabs
El Pico Tabs
Party And Bullshit Tabs
Party And Bullshit 1 Tabs
Swisha Tabs
Swisha Intro Tabs


Song lyrics



↑ Back to top | Tablatures and chords are parodies/interpretations of the original songs. You may use it for private study, scholarship, research or language learning purposes only
© 2014 AZChords.com Contact us | Privacy policy | DMCA | Add/correct tabs | Request tabs | Top 50 tabs