» » »

Alps Bass tabs (ver.1)

Artists:  A B C D E F G H I J K L M N O P Q R S T U V W X Y Z # 

Alps Bass tabs (ver.1)

Ratatat
Rating:
0/5 (0 votes)

Hard to play? Try these video lessons and learn fast.
                “Ratatat – ALPS”  Bass tabs

This is a fairly simple song, but the bass line in the song itself can’t be heard that well.
I think I’ve found it though.

It’s divided into 2 parts. In the beginning of the song no bass is heard until a certain 
moment you’ll have to play this:

G|-0--0--0-0-2-4-----------0--------------0----------------2---|
D|---------------2--2--2-2---------------------1--1--1-1h3---1-|
A|--------------------------5--3--3--3-3h5--3------------------|  x6
E|-------------------------------------------------------------|

After you’ve played this part, the next is fairly easy:

G|------------0-----------0-2------------0-----------|
D|-2--2--2-2-4--4--4--4-4----2--2--2-2-4--4-4----1h5-|
A|-------------------------------------------2-2-----|  x6
E|---------------------------------------------------|

Somewhat in the last 2 minutes there isn’t really a bass anymore to be found and you can 
slightly play the first part again.

The “h” means you’ll have to slide over de tabs. For example when you play 1h5, you’ll 
have to play 1,2,3,4 and 5 In one slide.

HAVE FUN!

~SpectralBanshee
            
Hard to play? Try these video lessons and learn fast. | Correct




comments powered by Disqus
↑ Back to top | Tablatures and chords are parodies/interpretations of the original songs. You may use it for private study, scholarship, research or language learning purposes only