» » »

SinfoníA FantáStica Tabs (ver.1)

Artists:  A B C D E F G H I J K L M N O P Q R S T U V W X Y Z # 

SinfoníA FantáStica Tabs (ver.1)

Rata Blanca
Rating:
0/5 (0 votes)

Hard to play? Try these video lessons and learn fast.
                Intro y coro
e|-----------------------------------------------------
b|-----------------------------------------------------
g|---------------------------3--55555555--5------------
D|--5--7777777--7--5--3--33--3--55555555--5--3--2------
A|--5--7777777--7--5--3--33--1--33333333--3--3--2------
E|--3--5555555--5--3--1--11------------------1--0------


Verso
e|-----------------------------------|
b|-----------------------------------|
g|-----------------------------------|
D|------3--------2-3-2---------------|
A|--5-3---5--3-5-------5-3-----------|
E|-----------------------------------|


e|-----------------|
b|-----------------|
g|----5------------|
D|--5-5-5-777------|
A|--5-3-5-777------|
E|--3---3-555------|
            
Hard to play? Try these video lessons and learn fast. | Correct




comments powered by Disqus
↑ Back to top | Tablatures and chords are parodies/interpretations of the original songs. You may use it for private study, scholarship, research or language learning purposes only