>
 >
Porque Es Tan Dificil Amar

Porque Es Tan Dificil Amar Guitar Tabs

Rata Blanca - Porque Es Tan Dificil Amar chords, tabs, tablatures, lyrics

Guitar lessons | Add/correct | Request | Top 50 tabs Artists:  A B C D E F G H I J K L M N O P Q R S T U V W X Y Z 0-9

Porque Es Tan Dificil Amar Guitar Tabs – Rata Blanca

CD, Sheet music, Poster

Do you like Porque Es Tan Dificil Amar? Share with your friends now
Bass TabsTabs

PORQUE ES TAN DIFÍCIL AMAR
As recorded by Rata Blanca
(From the 1990 Album MAGOS, ESPADAS Y ROSAS)

	

Music by Walter Giardino

F#
x 9 11 11 11 x
	
F#II
x x 4 3 2 2
	
Em
x 7 9 9 8 7
	
Bm
7 9 9 7 7 7

G(type 2)
3 5 5 4 3 3
	
F#II(type 2)
2 4 4 3 x x
	
Em(type 2)
x 7 9 9 8 x
	
A
5 7 7 6 5 x

C
x 3 2 0 1 x
	
F#II(type 3)
2 4 4 3 2 2
	
D
x 5 7 7 7 x
	
D(type 2)
x x 0 7 7 5

Gtr I (E A D G B E) - '(clean)'
Gtr II (E A D G B E) - 'Gtr. 2 (dist.)'
Gtr III (E A D G B E) - 'Gtr. 3 (dist.)'
Gtr IV (E A D G B E) - 'Gtr. 4 (acous)'

 Section 1
  Slowly Q=50
  Bm                   Em                       F#
 4/4
  Gtr I
  q     E S S Q.   e   S    +S  E E S S  H      Q  E S S  E. S T T S E
|--------------------|------------------------|------------------------|
|------------------7-|-7pb8r(7)---------------|--------------8-7h8p7---|
|-9b11------6-7------|----------6---6-7-/9----|------6h7-/9----------9-|
|---------9----------|------------------------|------------------------|
|--------------------|------------------------|------------------------|
|--------------------|------------------------|------------------------|


  Bm                       B
                                           |--3--|
  a E  a  E +E  S S H      Q  E  S S E.  S E  e  E
|------------------------|-----------------------------|
|------------------------|-----------------------------|
|-7s9-(9)s7-(7)-6---7----|------11p8----/8-9-11-12b14==|
|-----------------9------|-----------9-----------------|
|------------------------|-----------------------------|
|------------------------|-----------------------------|


  Em
         ~~~~~~~       ~~~
   +E    E  +E   S S   H
|---------------------------|
|---------------------------|
|-(12)r-12-(12)-11p9-/12----|
|---------------------------|
|---------------------------|
|---------------------------|


  A
                |-3--|
  Q  E S S E. S E E  E
|--------------------------|
|--------------------------|
|------9p6----6-7-9-11b12==|
|----------7---------------|
|--------------------------|
|--------------------------|


  D                          G
         ~~~~~~~      ~~~                         ~~
                                           |--3---|
   +E    E  +E  S S   H      Q  E S S E. S E E a  E
|--------------------------|-------------------------|
|--------------------------|-------------------------|
|-(11)r-11-(11)-9p7-/11----|------7p4----4-6-7-7s11--|
|--------------------------|----------5--------------|
|--------------------------|-------------------------|
|--------------------------|-------------------------|


  Em
    ~~~~  ~~~      ~
   +E  E +E  S S a Q  E     +E
|-------------------------------|
|-------------------------------|
|-(11)-9-(9)-7p6-7s9--9b11==(9)r|
|-------------------------------|
|-------------------------------|
|-------------------------------|


  F#         Bm              Bm6add9           F#
             Gtr II
                                                ~~
  |3|
  E Q +E   E  q      q        Q     S  E     S  H
|-------------7------9-----|-10-------12-------------||
|------------10b12--12b14--|-13b15----15b17-15-14----||
|-9p7-(7)\-----------------|-------------------------||
|--------------------------|-------------------------||
|--------------------------|-------------------------||
|--------------------------|-------------------------||


 Section 2
  B              A               G                       D
                  ~~                    ~~~~~~~       ~~
      |--3--|                        |3-|
  Q   E  E  E  a  Q   E   S  S    a  E  Q  +E   S  S  Q   E  S  S
|----14-11---------------------|----------------------------------|
|----------12------------12p10-|----------------------------------|
|-------------12s14--(x)-------|-12s14-12-(12)-11----12-----------|
|------------------------------|------------------14-----12-14p12-|
|------------------------------|----------------------------------|
|------------------------------|----------------------------------|


  A                      G                D                     Dmaj7
   ~~~~~~~~               ~~                    ~~~~~~~      ~~
                |-3--|                       |3-|
   E  +E   a a  E E  E a  Q    E    S S   a  E  Q  +E  S  S  Q   E  S  S
|--------------12-9---------------------|--------------------------------|
|------------x------10-------------10p8-|--------------------------------|
|----------x-----------7s12--\(x)\------|-9s12-11-(11)-9----11-----------|
|-11-(11)\------------------------------|----------------12-----11-12p11-|
|---------------------------------------|--------------------------------|
|---------------------------------------|--------------------------------|


  G               D/F#          Em                F#
  ~~~~~~~          ~~              ~~~~~~          ~~
          |-3-|                  |3|  |----3----|
  E +E    E e E a  Q  E S S   a  E Q +E   a  E  E  Q   Q
|--------10-7---------------|-------------------------14-----|
|-------------8---------8p7-|------------11s12-14-11--17b19--|
|---------------7s11--------|-9s11S9-(9)---------------------|
|-9-(9)\--------------------|--------------------------------|
|---------------------------|--------------------------------|
|---------------------------|--------------------------------|


         Bm            D
               ~~~~~~~
           |-3-|        |--3--|  |--3--|
   a      +E   Q  +Q    E  E  E  E  E  E
|----------------------------------------|
|-17pb19r(17)-15-(15)--15p14----15-14----|
|----------------------------16-------16-|
|----------------------------------------|
|----------------------------------------|
|----------------------------------------|


  Em       F#       Bm
                                     2/4
                     ~~
   |--3--|  |--3--|
   E  E  E  E  E  E  Q   E     E       E     E     E     E
|-----------------------17b19-17b19-|-17b19-17b19-17b19-17b19-||
|-14-------------14-----------------|-------------------------||
|----16-15-15-16----16--------------|-------------------------||
|-----------------------------------|-------------------------||
|-----------------------------------|-------------------------||
|-----------------------------------|-------------------------||


 Section 3
  (Em)       (A)       (D)     (G)
 4/4
  Gtr II
   >
   ~~~~~
   H          H         W
|-17b19--------------|-----------------|
|--------------------|-----------------|
|--------------------|-----------------|
|--------------------|-----------------|
|--------------------|-----------------|
|--------------------|-----------------|
|
| Gtr III
|                                   ~~
|  Q      Q   Q   Q     Q   Q   Q   Q
|-17-----12----------|-14--------------|
|------------14------|-----15--12------|
|----------------14--|-------------12--|
|--------------------|-----------------|
|--------------------|-----------------|
|--------------------|-----------------|
|
| Gtr I
|  Q      Q   Q   Q     Q   Q   Q   Q
|-19-----15----------|-17--14----------|
|------------17--14--|---------15------|
|--------------------|-------------16--|
|--------------------|-----------------|
|--------------------|-----------------|
|--------------------|-----------------|


  (Em6add9(Dm/maj7/B(F#)(Em)(D) (C#m)
   Q   Q   Q   Q     Q   Q   Q  Q
|-15--14------13--|-14--12--10--9--||
|---------12------|----------------||
|-----------------|----------------||
|-----------------|----------------||
|-----------------|----------------||
|-----------------|----------------||
|
|  Q   Q   Q   Q     Q   Q   Q  Q
|-12--------------|----------------||
|-----14--15--14--|-11---8---------||
|-----------------|---------11--9--||
|-----------------|----------------||
|-----------------|----------------||
|-----------------|----------------||


 Section 4
  Bm                             Em
  Gtr II
                  ~    PM--|     ~~~~~~~
  Q      +E   S S Q  S S S S   a Q  +S   E S a  E. S S  S  E
|----------------------------|-----------------------------------|
|----------------------------|----------------------------17b19==|
|-9b11===(9)r-7p6-7--x---6-7-|-7s9--(9)--------------------------|
|----------------------9-----|-----------------------------------|
|----------------------------|----------10-9-9h10--9-7-----------|
|----------------------------|-------------------------/x--------|
|
| Gtr IV
| W                              Q   Q         +H
|----------------------------|------^7---------(7)---------------|
|----------------------------|------^8---------(8)---------------|
|----------------------------|------^9---------(9)---------------|
|-9--------------------------|------^9---------(9)---------------|
|----------------------------|------^7---------(7)---------------|
|----------------------------|-----------------------------------|


  F#
                                               ~~
                        |--3--|                     |--3--|
   E.    s  X  X  X  X  T  T  T      +S   +S   Q    E  E  E
|-----------------------------------------------------------|
|-17r---17-15h17p15s14h15p14-----------------------------14-|
|----------------------------16b18==(16)r(16)-15--/15h16----|
|-----------------------------------------------------------|
|-----------------------------------------------------------|
|-----------------------------------------------------------|
|
|  E  Q                               E        H
|---------------------------------------------^2------------|
|---------------------------------------------^2------------|
|-------------------------------------3-------^3------------|
|-------------------------------------4-------^4------------|
|-----------------------------------------------------------|
|-----2-----------------------------------------------------|


  Bm
                  ~~~
                                |--3--|
   E     +S   S   Q.      E     E  E  E
|---------------------------------------|
|-15b17r(15)-14--15------(x)\-/12h14-15-|
|---------------------------------------|
|---------------------------------------|
|---------------------------------------|
|---------------------------------------|
|
|  E.         S   Q    H
|----------------^2---------------------|
|----------------^3---^3----------------|
|----------------^4---^4----------------|
|----------------^4---^4----------------|
|------------(2)-^2---^2----------------|
|---------------------------------------|


  B
   ~~~       ~~~      ~~~
                                |----3-----|
   E.  S  a  E.    S  E.  +S    E     +E   E
|--------------------17--(17)\-19b20r(19)-17-|
|-16--17-17s19----20-------------------------|
|--------------------------------------------|
|--------------------------------------------|
|--------------------------------------------|
|--------------------------------------------|
|
|  Q         E  E     H
|--------------------------------------------|
|---------------7----------------------------|
|---------------8-----8----------------------|
|------------9--9-----9----------------------|
|------------9-------------------------------|
|------------7-------------------------------|


  Em
                                                        ~~~~~~~
      |--3--|        |------6-------|
   E  T  T  T  S  S  T  T  T  T  T  T  S      +S   +S   E  +S   +S    E
|-19-17h19p17-15-17-15h17p15s14h15p14--------------------------------17b19-|
|-------------------------------------17b19==(17)r(17)-17-(17)-(17)\-------|
|--------------------------------------------------------------------------|
|--------------------------------------------------------------------------|
|--------------------------------------------------------------------------|
|--------------------------------------------------------------------------|
|
|  Q              E           E                H
|--------------------------------------------------------------------------|
|----------------------------^7--------------^-8---------------------------|
|-----------------9----------^9--------------^-9---------------------------|
|-----------------9----------^9--------------^-9---------------------------|
|-----------------7--------------------------^-7---------------------------|
|--------------------------------------------------------------------------|


  A
      ~~~~~~~~            ~~~
                                 |-----3-----|
   S  E.  +S   E     +S   E.  S  E  +E      +E
|-17--------------------------------------------|
|----14--(14)-15b17r(15)-14--12-10-(10)b11r(10)-|
|-----------------------------------------------|
|-----------------------------------------------|
|-----------------------------------------------|
|-----------------------------------------------|
|
|  Q       Q              Q      Q
|-------------------------5------3--------------|
|-------------------------5------2--------------|
|----------2--------------2------2--------------|
|----------2------------------------------------|
|----------0------------------------------------|
|-----------------------------------------------|


  D
                    ~~
       |--3--|                              |--3--|
   E   T  T  T S a  Q     E    S  S  E     +S   S S
|---------------------------------------------------|
|---------------------------------------------------|
|-12--11h12p11-9-9h11----(x)\-12p11-12b14r(12)p11-9-|
|---------------------------------------------------|
|---------------------------------------------------|
|---------------------------------------------------|
|
|  Q.                  E  H
|-^2------------------!3-^2-------------------------|
|-^3------------------!3-^3-------------------------|
|-^2------------------!2-^2-------------------------|
|-^0------------------!0-^0-------------------------|
|---------------------------------------------------|
|---------------------------------------------------|


              G                   D/F#
        ~~~~~~~~~~                 ~~~       ~~
   |-3--|
   S  S S +E  +S  a S  a  S  a  S  E.  S  a  E.  S
|--------------------------------------------------|
|--------------------------------------------------|
|--------------------------------------------------|
|-12-11-9-(9)-(9)-7s9-(9)s7-(7)s5-/9---------------|
|-------------------------------------/5-(5)s7--10-|
|--------------------------------------------------|
|
| Gtr IV
|  Q           Q                   H
|-------------^3------------------^2---------------|
|-------------^3------------------^3---------------|
|-------------^4------------------^2---------------|
|-------------^5------------------^4---------------|
|--------------------------------------------------|
|--------------------------------------------------|


     Em                    F#
                PM|         ~~~
      |----3----| |--3---|
   a  E   a   E E E    E E  E. S E     +S  +S
|----------------------------------------------|
|----------------------------------------------|
|----------------------9-7--6----9b11==(9)r(9)-|
|------------------------------8---------------|
|-10s12-(12)s10-9-7----------------------------|
|----------------------------------------------|
|
| Gtr IV
|     Q           S E.      H
|-----------------0-3------^2------------------|
|-----------------0-0------^2------------------|
|-----------------0-0------^3------------------|
|-----------------2--------^4------------------|
|----------------------------------------------|
|----------------------------------------------|


  Bm                 Em
  ~~~~~~~             ~~~~~~~~
  Q  +S    S    E     Q   +S   E     S
|--------------------------------------|
|-------------/17b19-17--(17)-15b17-15-|
|-7--(7)-/(x)--------------------------|
|--------------------------------------|
|--------------------------------------|
|--------------------------------------|
|
| H                   Q    Q
|--------------------------------------|
|--------------------------------------|
|--------------------------9-----------|
|--------------------------9-----------|
|---------------------7----------------|
|--------------------------------------|


  F#
   ~~~                                                               PM            ~~
                         |--3--|  |---3---|
   E.  a  S  S  T  T  T  T  T  T  T  T    T  X  X  X  X  X  X  X  X  T  S     +S   E  +S
|------------------------------------------------------------------------------------------||
|-14--14p12-------------14-------14h15p==14----14-15-17p15p14-15p14------------------------||
|-----------15----15-16----15-16------------16----------------------16-16b18r(16)-15-(15)\-||
|--------------16--------------------------------------------------------------------------||
|------------------------------------------------------------------------------------------||
|------------------------------------------------------------------------------------------||
|
|  Q.                 E                H
|--------------------------------------2---------------------------------------------------||
|-11-----------------------------------2---------------------------------------------------||
|-11-----------------------------------3---------------------------------------------------||
|-11-----------------------------------4---------------------------------------------------||
|--9---------------------------------------------------------------------------------------||
|------------------------------------------------------------------------------------------||


 Section 5
  Bm
  Gtr II
                              ~~~~~~~
                                            |--3--|
   E      E       E     S     S  +E   +E    E  E  E
|-17b19-[17]pb19-17b19-17b19-17-(17)-(17)\-14-15-17-|
|---------------------------------------------------|
|---------------------------------------------------|
|---------------------------------------------------|
|---------------------------------------------------|
|---------------------------------------------------|
|
| Gtr IV
|  H                              H
|---------------------------------------------------|
|---------------------------------------------------|
|---------------------------------------------------|
|--9------------------------------9-----------------|
|--9------------------------------9-----------------|
|--7------------------------------7-----------------|


  Em
               ~~~          ~~
                   |--3--|               |--3--|
   E     S  S  E.  T  T  T  Q   E     S  T  T  T
|-15b17-15-14-15--14h15p14-----------------------|
|--------------------------17--17b19-17p15h17p15-|
|------------------------------------------------|
|------------------------------------------------|
|------------------------------------------------|
|------------------------------------------------|
|
|  W
|-^7---------------------------------------------|
|-^8---------------------------------------------|
|-^9---------------------------------------------|
|-^9---------------------------------------------|
|-^7---------------------------------------------|
|------------------------------------------------|


  A
                 ~~
   S  E     +S   Q   +S    E     +S   s  E     +S
|--------------------------------------------------|
|-14----------------------10b12r(10)-10-10b12r(10)-|
|----16b18r(16)-14--(14)\--------------------------|
|--------------------------------------------------|
|--------------------------------------------------|
|--------------------------------------------------|
|
|  H                  H
|-^5------------------3----------------------------|
|-^5------------------2----------------------------|
|-^6------------------2----------------------------|
|-^7-----------------------------------------------|
|--------------------------------------------------|
|--------------------------------------------------|


  D
                                             \1.5
                                          ~
      |-3-|
   E  T T T S    +S     +S     +E     +S  E  S    S S a S  S
|------------------------------------------------------------|
|--8--7h8p7--------------------------------------------------|
|-----------9b11r(9)b12r(9)b11r(9)b11r(9)-7-(7)---6h7-7s9----|
|---------------------------------------------------------12-|
|------------------------------------------------------------|
|------------------------------------------------------------|
|
|  Q.                           E      H
|-^2----------------------------3-----^2---------------------|
|-^3----------------------------3-----^3---------------------|
|-^2----------------------------------^2---------------------|
|-^0----------------------------------^0---------------------|
|------------------------------------------------------------|
|------------------------------------------------------------|


  G
               |
               ~~~~~~~                      ~~~
                               |--3--|
   S S +S     +S  +S    S   S  T  T  T  S   E. a  E      +S   +T   T
|--------------------------------------------------------------------|
|--------------------------17-15h17p15-14--12----17b19==(17)r(17)p15-|
|----------------------------------------------x---------------------|
|-11p9-(9)b11r(9)-(9)-/(x)---------------------x---------------------|
|--------------------------------------------------------------------|
|--------------------------------------------------------------------|
|
|  H                                    Q.                E
|--------------------------------------------------------------------|
|--------------------------------------------------------------------|
|---------------------------------------4----------------------------|
|---------------------------------------5----------------------------|
|--------------------------------------------------------------------|
|--3-----------------------------------------------------------------|


      Em             F#
   ~~~          ~~~                    PM   ~~~~~~
                          |-------6-------|
   E.     T  T  E. S   S  T  T  T  T   T  T S +S  a  S     S      +S
|------------------9---------------------------------------------------|
|-17------------------12-11h12p11--------------------------------------|
|--------12p11-12-----------------11----------------12b14-12pb14r(12)p=|
|------------------------------------(11)---------x--------------------|
|-----------------------------------------x-9-(9)-x--------------------|
|----------------------------------------------------------------------|
|
|  PM
|  E   E       +Q      H
|----------------------------------------------------------------------|
|-----^8-------(8)---^11-----------------------------------------------|
|-----^9-------(9)---^11-----------------------------------------------|
|-----^9-------(9)---^11-----------------------------------------------|
|--7--^7-------(7)---^-9-----------------------------------------------|
|----------------------------------------------------------------------|


  Bm                                    G                  F#
                          ~
                                |--3--|    |-3--|
  S S     T      +T   T T E  S  T  T  T S  E T  T T  T      +E   +S   S
|---------------------------12-10h12p10-9-10p9h10p9---------------------|
|---------------------------------------------------12b14==(12)r(12)-11-|
|-9-9b11r(9)b11==(9)r-9p7-----------------------------------------------|
|-------------------------9---------------------------------------------|
|-----------------------------------------------------------------------|
|-----------------------------------------------------------------------|
|
| H                                     Q                    Q
|-7-------------------------------------3-------------------------------|
|-7-------------------------------------3-------------------------------|
|-7-------------------------------------4--------------------3----------|
|-9-------------------------------------5--------------------4----------|
|-9-------------------------------------5--------------------4----------|
|-7-------------------------------------3--------------------2----------|


     B
      ~~~
   a  H.       +Q
|--------------------||
|-11h12-------(12)\--||
|--------------------||
|--------------------||
|--------------------||
|--------------------||
|
|     W
|--------------------||
|--------------------||
|--------------------||
|--------------------||
|--------------------||
|--------------------||


 Section 6
  Em              A
  Gtr II
                   ~~
  Q   E     E      Q  a  E  S S
|-------------------------------|
|----10b12-10pb12r10------------|
|-9---------------------------9-|
|---------------------9s11-12---|
|-------------------------------|
|-------------------------------|
|
| Gtr IV
| H                H
|-----------------^5------------|
|-8---------------^5------------|
|-9---------------^6------------|
|-9---------------^7------------|
|-7---------------^7------------|
|-----------------^5------------|


  D                          G
                ~~~~~~~                 ~~~~~~
   S     +T  T  E  +S  S S S S    +T  T E +S  S S S
|---------------------------------------------------|
|---------------------------------------------------|
|-11b12r(11)p9-11-(11)-9-7-9-9b11r(9)p7---------6h7-|
|---------------------------------------9-(9)-9-----|
|---------------------------------------------------|
|---------------------------------------------------|
|
|  H                         H
|-^2------------------------------------------------|
|-^3------------------------------------------------|
|-^2-------------------------4----------------------|
|-^0-------------------------5----------------------|
|----------------------------5----------------------|
|----------------------------3----------------------|


    C                F#
                ~~
          |-3-|       |----6----|
  a  E S. X X X E. S  S S S S S S S T X X X T. S
|------------------------------------------------|
|------------------------------------------------|
|-7s=9-9--7h9p7-5--4--3--------------------------|
|-----------------------5-4-2-4-5-4-2------------|
|-------------------------------------5p4p2s1----|
|----------------------------------------------2-|
|
|    H                H
|---^0-------------------------------------------|
|---^1---------------^2--------------------------|
|---^0---------------^3--------------------------|
|---^2---------------^4--------------------------|
|---^3---------------^4--------------------------|
|--------------------^2--------------------------|


  Bm                                        B
      ~~
                           |---3---|                      |--3--|      |3-|  |--3--|
  +S  E.    S   T  a  S    T  T    T  T      +S   +T   t  T  T  T s S  E  S  T  T  T
|------------------------------------------------------------------------------------|
|--------------12-12h14---12h14p==12-11b12==(11)r(11)-----------------12-13p12h13p12-|
|-----------------------------------------------------12-11h12p11p9-8----------------|
|------------------------------------------------------------------------------------|
|------------------------------------------------------------------------------------|
|-(2)s7--/(15)-----------------------------------------------------------------------|
|
|  Q.                   S       S             H
|-^2--------------------x-------------------^-7--------------------------------------|
|-^3----------------------------x-----------^-7--------------------------------------|
|-^4----------------------------------------^-8--------------------------------------|
|-^4----------------------------------------^-9--------------------------------------|
|-^2----------------------------------------^-9--------------------------------------|
|-------------------------------------------^-7--------------------------------------|


  Em                                A
            ~~~~~~~~~~~~
                            |--3--|
   S  X  X  E  +T   +S   E  T  T  T  E +E    S     +E   s
|-----------------------12p10h12p10--9-(9)/-17b19-(17)-17-|
|-10------------------------------------------------------|
|----12p11-12-(12)-(12)-----------------------------------|
|---------------------------------------------------------|
|---------------------------------------------------------|
|---------------------------------------------------------|
|
|  H                                 H
|-^7------------------------------------------------------|
|-^8--------------------------------^5--------------------|
|-^9--------------------------------^6--------------------|
|-^9--------------------------------^7--------------------|
|-^7--------------------------------^7--------------------|
|-----------------------------------^5--------------------|


  D                                             G
                                                                              \0.5/
                                                               ~~~~~~~
         |--3--|
   S  T  T  T  T  X  X  X  T.     +S    E   +S   S     +T   T  E  +S   +T     S      S  T
|-15-17-15h17p15s14h15p14--------------17-----------------------------------------------------|
|-------------------------17b19==(17)-(17)r(17)-17b19r(17)p15---------------/12-----14-15b17==|
|-------------------------------------------------------------16-(16)-(16)\-------------------|
|---------------------------------------------------------------------------------------------|
|---------------------------------------------------------------------------------------------|
|---------------------------------------------------------------------------------------------|
|
| Gtr IV
|  H                                             H
|-^2------------------------------------------------------------------------------------------|
|-^3------------------------------------------------------------------------------------------|
|-^2--------------------------------------------^4--------------------------------------------|
|-^0--------------------------------------------^5--------------------------------------------|
|-----------------------------------------------^5--------------------------------------------|
|-----------------------------------------------^3--------------------------------------------|


  C                                 F#
             \0.5/                                         \1.5/
                     ~~~~
                            |--3--|             |-3--|
   +S   +S   E      +E   S  T  T  T  T  X  X  X T  T T  T  S      X    +E  S   S
|-----------------------------------------------------------------------------------|
|-(15)r(15)-13-----(13)-15-14-11-14-12p11h12p11-------------------------------------|
|-----------------------------------------------9-----------------7b9==(7)r7b9r7b9==|
|-------------------------------------------------11-------------(x)----------------|
|----------------------------------------------------9s12-\9-----(9)----------------|
|-----------------------------------------------------------------------------------|
|
|   H                                H
|-^-0-------------------------------^2----------------------------------------------|
|-^-1-------------------------------^2----------------------------------------------|
|-^-0-------------------------------^3----------------------------------------------|
|-^-2-------------------------------^4----------------------------------------------|
|-^-3-------------------------------^4----------------------------------------------|
|-----------------------------------^2----------------------------------------------|


      Bm                             B
            ~~~~~~
  +T  +T  S E +S   S    S   X X  X X  X T X X X X X T T T  T      +E   +S  T T
|-----------------------7-------------------------------7----------------------|
|--------------------------10p8-10-8h10p8s7h8p7s5h7p5-----10b12==(10)r(10)-8p7-|
|-(7)r(7)p6-7-(7)-(7)/--------------------------------9------------------------|
|------------------------------------------------------------------------------|
|------------------------------------------------------------------------------|
|------------------------------------------------------------------------------|
|
| Gtr IV
|  Q.                   E             Q                            E    E
|------------------------------------^7----------------------------------------|
|------------------------------------^7----------------------------------------|
|--4---------------------------------^8----------------------------------------|
|--4---------------------------------^9----------------------------9-----------|
|--2-------------------(x)-----------^9----------------------------9-----------|
|------------------------------------^7----------------------------7-----------|


  Em                       A
  ~~       ~~                        ~
     |-3-|                      |3-|
  E. T T T E.    T T a     +E  +E  S Q
|-----------------------------------------|
|-8--7h8p7-------7-8-8b10==(8)r(8)--------|
|----------9-----------------------6-6----|
|-----------------------------------------|
|-----------------------------------------|
|-----------------------------------------|
|
| Q.           E            Q.          E
|-------------^7-----------^5-------------|
|-------------^8-----------^5----------^5-|
|-------------^9-----------^6----------^6-|
|-------------^9-----------^7----------^7-|
|-7------------------------^7-------------|
|-0------------------------^5-------------|


  D
                                            ~~   ~~~~~~
   T  T T X X T T T  T a S    +S  S   +T  T E. T T +S   S  E
|--------------------------------------------------------------|
|--------------------------------------------------------------|
|--7--6-7-6h7p6--------------------------------------------7b9-|
|---------------9-7--------------------------------------------|
|-------------------10-9s5b7==(5)r5b7r(5)-4-5--4---------------|
|------------------------------------------------7-(7)-(x)-----|
|
|  Q.                             E         H
|---------------------------------5---------5------------------|
|-^7------------------------------7---------7------------------|
|-^7------------------------------7---------7------------------|
|-^7------------------------------0---------0------------------|
|-^5-----------------------------------------------------------|
|--------------------------------------------------------------|


  C                      F#5
      ~~~~~~                 ~~~~~~
                   |-3-| |-3-|
  +E  E +S   S   S T T T S S S +T   T S    +E.   s
|--------------------------------------------------|
|--------------------------------------------------|
|-(7)-5-(5)-(x)--5-4h5p4-3------------9b11-(9)---9-|
|--------------------------5-4-(4)-/x--------------|
|--------------------------------------------------|
|--------------------------------------------------|
|
|  Q.            S S     Q                  E  E
|---------------^3-------------------------^2------|
|---------------^1-------------------------^2--2---|
|-(0)-----------^0-------------------------^3--3---|
|-(2)--------------x-----4---------------------4---|
|-(3)--------------x-----4-------------------------|
|------------------------2-------------------------|


  Bm                                          B
                                   ~~~~~~~~~~~~~~~~
      |-3-|            |--3---|
  T T T T T T  S. S  T T  T   T T  T      +T   +E    S   T T  E     E
|--------------7--9-10-9h10p==9-7----------------------------17b19-17b19-|
|---------------------------------10b12==(10)-(10)-(10)r-----------------|
|-9p7h9p7s6-7-(7)----------------------------------------x---------------|
|--------------------------------------------------------x-x-------------|
|----------------------------------------------------------x-------------|
|------------------------------------------------------------------------|
|
| Q.                        S      S            Q.                  E
|------------------------------------------------------------------^7----|
|------------------------------------------------------------------^7----|
|------------------------------------------------------------------^8----|
|---------------------------x-------------------9------------------^9----|
|----------------------------------x------------9------------------------|
|-----------------------------------------------7------------------------|


 Outro
  Em                 A              D                        G
                             ~~                                      ~~
                                               |--3--|
   E     E  E  E      E   E  Q       E   E  T  T  T  T  T  E  E   E  Q
|-17b19-17-15p14tr15--------------|-17--15-14h15p14h15p14----------------|
|--------------------17--15-14----|-----------------------17-15--14------|
|---------------------------------|---------------------------------16---|
|---------------------------------|--------------------------------------|
|---------------------------------|--------------------------------------|
|---------------------------------|--------------------------------------|
|
|  Q.          E      Q.        E    Q.                    E  Q.       E
|-------------^7---------------^5-|------------------------5--3--------3-|
|-^8----------^8---------------^5-|------------------------7--3--------3-|
|-^9----------^9---------------^6-|--7---------------------7--4--------4-|
|-^9------------------7-----------|--7------------------------5----------|
|-^7------------------7-----------|--5-----------------------------------|
|---------------------5-----------|--------------------------------------|


  C                      F#
  Gtr II
                                ~~~
   E   a  T  S.  E  E  a  E  E  E. S
|-15--14h15p14-----------------------|
|---------------17-15-15p14----------|
|---------------------------16-15--x-|
|----------------------------------x-|
|------------------------------------|
|------------------------------------|
|
| Gtr III
|  W
|------------------------------------|
|------------------------------------|
|------------------------------------|
|------------------------------------|
|------------------------------------|
|------------------------------------|
|
| Gtr IV
|  Q.               E     H
|------------------^3----------------|
|------------------^5----------------|
|--5---------------^5-----3----------|
|--5----------------------4----------|
|--3----------------------4----------|
|-------------------------2----------|


  Bm                                                 B
                                    ~~~~~~~~~~~~~~~~~~~~~~~
               |----------------7-----------------|              |---3---|
   E     S  S  S     +S   S  S     +S       +S   +S   +E.     S  E  E    E
|-17b19-17-14-17b19r(17)p14-17b19r(17)b19==(17)-(17)-(17)r---14-14-15---15b17--|
|------------------------------------------------------------------------------|
|------------------------------------------------------------------------------|
|------------------------------------------------------------------------------|
|------------------------------------------------------------------------------|
|------------------------------------------------------------------------------|
|
|                                                                |---3---|
|  Q           Q                                       E.     S  E  E    E
|------------------------------------------------------------------------------|
|------------------------------------------------------------16-16-17---17b19--|
|------------------------------------------------------------------------------|
|------------------------------------------------------------------------------|
|------------------------------------------------------------------------------|
|------------------------------------------------------------------------------|
|
|  Q           Q                                       E   E     E    E
|------------------------------------------------------------------------------|
|----------------------------------------------------------------7----7--------|
|--------------7-------------------------------------------8-----8----8--------|
|--9-----------9---------------------------------------9---9-----9----9--------|
|--9-----------9---------------------------------------9-----------------------|
|--7-----------7---------------------------------------7-----------------------|


                                           H.=H
  Em                        A              D
                                                               Gtr I
                                                     >
   ~~~                       ~~                      ~~~~~~~
              |--3---|           |--3--|                        |--3--|
   E.  +S     E   E  E       Q   E  E  E    E     S  S  +H      E  E  E
|-15--(15)\-/19--21-21b22---21--21-19-21-|-21b22------------------12-14-:
|----------------------------------------|-------19-19-(19)----15-------:
|----------------------------------------|------------------------------:
|----------------------------------------|------------------------------:
|----------------------------------------|------------------------------:
|----------------------------------------|------------------------------:
|
|                                                              Gtr I
|                                                    >
|  ~~~                       ~~                      ~~~~~~~
|             |--3---|           |--3--|                        |--3--|
|  E.  +S     E   E  E       Q   E  E  E    E     S  S  +H      E  E  E
|-----------/16--18-18b19---18--18-16-18-|-18b19-------------------9-11-:
|-17--(17)\------------------------------|-------15-15-(15)----12-------:
|----------------------------------------|------------------------------:
|----------------------------------------|------------------------------:
|----------------------------------------|------------------------------:
|----------------------------------------|------------------------------:
|
|  Q         +E.          S  H              W
|----------------------------------------|-^2---------------------------:
|-^8---------(8)-------------------------|-^3---------------------------:
|-^9---------(9)-------------6-----------|-^2---------------------------:
|-^9---------(9)----------x--7-----------|-^0---------------------------:
|-^7---------(7)----------x--7-----------|------------------------------:
|----------------------------5-----------|------------------------------:


 Free Time
  H.=H
  Em          F#                                   Bm
                   |--3--|
   E  E  E  E  Q   E  E  E    Q      a      +S   S  E  +H
|-15-14-12-----------------:----------------------------------:
|----------15-14--11-12-14-:-12b14--12pb14r(12)-11-12-(12)----:
|--------------------------:----------------------------------:
|--------------------------:----------------------------------:
|--------------------------:----------------------------------:
|--------------------------:----------------------------------:
|
|                  |--3--|
|  E  E  E  E  Q   E  E  E    Q      a      +S   S  E  +H
|-12-11--9-----------------:----------------------------------:
|----------12-11---8--9-11-:--9b11---9pb11r=(9)--8--9--(9)----:
|--------------------------:----------------------------------:
|--------------------------:----------------------------------:
|--------------------------:----------------------------------:
|--------------------------:----------------------------------:


  Gtr IV
  Q  Q   E  E  E  E   +W
|-7--9--10----------:--------*|
|----------(7)---^7-:-(7)----*|
|----------------^7-:-(7)----*|
|----------------^9-:-(9)----*|
|----------------^9-:-(9)----*|
|----------------^7-:-(7)----*|
|
| W                    W
|-------------------:--------*|
|-------------------:--------*|
|-------------------:--------*|
|-------------------:--------*|
|-------------------:--------*|
|-------------------:--------*|



Duration Legend
---------------
W - whole; H - half; Q - quarter; E - 8th; S - 16th; T - 32nd; X - 64th; a - acciaccatura
+ - note tied to previous; . - note dotted; .. - note double dotted
Uncapitalized letters represent notes that are staccato (1/2 duration)
Irregular groupings are notated above the duration line
Duration letters will always appear directly above the note/fret number it represents the
duration for.  Duration letters with no fret number below them represent rests.  Multi-
bar rests are notated in the form Wxn, where n is the number of bars to rest for.  Low
melody durations appear below the staff

Tablature Legend
----------------
 h   - hammer-on
 p   - pull-off
 b   - bend
 pb  - pre-bend
 r   - bend release (if no number after the r, then release immediately)
 /\  - slide into or out of (from/to "nowhere")
 s   - legato slide
 S   - shift slide
 - natural harmonic
[n]  - artificial harmonic
n(n) - tapped harmonic
 ~   - vibrato
 tr  - trill
 T   - tap
 TP  - trem. picking
 PM  - palm muting
\n/  - tremolo bar dip; n = amount to dip
 \n  - tremolo bar down
 n/  - tremolo bar up
/n\  - tremolo bar inverted dip
 =   - hold bend; also acts as connecting device for hammers/pulls
 <> - volume swell (louder/softer)
 x   - on rhythm slash represents muted slash
 o   - on rhythm slash represents single note slash

Misc Legend
-----------
 |  - bar
||  - double bar
||o - repeat start
o|| - repeat end
*|  - double bar (ending)
 :  - bar (freetime)
 $  - Segno
 &  - Coda
Tempo markers -  = BPM(8/16=s8/s16), where s8 = swing 8ths, s16 = swing 16ths





Comments


Popular Rata Blanca tabs & chords
Mujer Amante 1 Chords
Mujer Amante 2 Chords
Abeja Reina Tabs
Agord, La Bruja Tabs
El SueñO De La Gitana Tabs
La Caja Tabs
La Llave De La Puerta Secreta Intro Tabs
Otoo Medieval Tabs
Rompe El Hechizo Tabs
Amo Del Camino Ukulele


Song lyrics



↑ Back to top | Tablatures and chords are parodies/interpretations of the original songs. You may use it for private study, scholarship, research or language learning purposes only
© 2014 AZChords.com Contact us | Privacy policy | DMCA | Add/correct tabs | Request tabs | Top 50 tabs