» » »

Rata Blanca, La Cancion Del Guerrero Bass tabs (ver.1)

Artists:  A B C D E F G H I J K L M N O P Q R S T U V W X Y Z # 

La Cancion Del Guerrero Bass tabs (ver.1)

Rata Blanca Tabs
 Rating:
4/5 (4 votes)
La Cancion Del Guerrero lessons Tabs too difficult? Try these video lessons and learn fast
                
LA CANCIÓN DEL GUERRERO (Bassline)
As recorded by Rata Blanca
(From the 2002 Album EL CAMINO DEL FUEGO)

	

Words and Music by Walter Giardino
Arranged by Rata Blanca

Gtr I (E A D G) - 'Untitled'

 Intro
  Q=166
                                F#  B   A F#
 4/4
  Gtr I
  Wx7          H    Q   Q       E E E E E E E E
|------------|--------------||------------------|
|------------|--------------||o-----------------|
|------------|--------------||o-----2-2---------|
|------------|---------12\--||--2-2-----5-2-2-2-|


  A   B   A F#      F#  B   A F#  A           B
  E E E E E E E E   E E E E E E E E   +E  E E E +E  E Q
|-----------------|-----------------|-----------------------|
|-----------------|-----------------|-----------------------|
|-0-0-2-2-0-------|-----2-2-------0-|-(0)-0-0-2-(2)-2-2\----|
|-----------2-0-2-|-2-2-----5-2-2---|-----------------------|


  F#  B   A         A   B   A F#E F#  F#  B   A F#  A           E
  E E E E E E E E   E E E E E E E E   E E E E E E E E   +E  E E E +E  E Q
|-----------------|-----------------|-----------------|----------------------||
|-----------------|-----------------|-----------------|---------------------o||
|-----2-2---------|-0-0-2-2-0-------|-----2-2-------0-|-(0)-0-0-------------o||
|-2-2-----5-2-2-2-|-----------2-0-2-|-2-2-----5-2-2---|---------0-(0)-0-0----||


   Verse
    F#            E   F#            E   F#  B  A F#          B  A F#
    E E E E E E E E   E E E E E E E E   E E Q  E E E E   E E Q  E E E E
||------------------|-----------------|----------------|----------------|
||o-----------------|-----------------|----------------|----------------|
||o-----------------|-----------------|-----2--0-------|-----2--0-------|
||--2-2-2-2-2-2-2-0-|-2-2-2-2-2-2-2-0-|-2-2------2-2-2-|-2-2------2-2-2-|


                                     1.
  F#                              E   D    A    E
  E E E E E E E E   E E E E E E E E   Q.   Q.   Q
|-----------------|-----------------|--------------|
|-----------------|-----------------|--------------|
|-----------------|-----------------|-5------------|
|-2-2-2-2-2-2-2-2-|-2-2-2-2-2-2-2-0-|------5----0--|


                       2.
                        D     A     E
  +E  E E E E Q   E     E E E E E E Q    +E  E E E E E E E
|--------------------||----------------|-------------------||
|-------7---7-6\----o||---4-7----------|-------------------||
|-----7---7---------o||-5-------4-7----|-----5-4-2-------4-||
|-(0)-------------2--||-------5-----0--|-(0)-------5-4-2---||


 Chorus
  C#                  F#            E                     A
  +E  E E E E E E E   E E E E E E E E   E E E E E E E E   E E E E E E E E
|-------------------|-----------------|-----------------|------------------|
|-------------------|-----------------|-----------------|------------------|
|-(4)-4-4-4-4-4-4-4-|-----------------|-----------------|------------------|
|-------------------|-2-2-2-2-2-2-2-0-|-0-0-0-0-0-0-0-0-|-5-5-5-5-5-5-5-5--|


  E                 D                 C#                C#
  E E E E E E E E   E E E E E E E E   E E E E E E E E   E E E E E E E E
|-----------------|-----------------|-----------------|------------------||
|-----------------|-----------------|-----------------|------------------||
|-7-7-7-7-7-7-7-7-|-5-5-5-5-5-5-5-5-|-4-4-4-4-4-4-4-4-|-4-5-4-2----------||
|-----------------|-----------------|-----------------|---------5-4-2-0--||


   Interlude
    F#  B   A F#      A   B   A F#E F#      B   A F#  A           B
   4/4
    E E E E E E E E   E E E E E E E E   E E E E E E E E   +E  E E E +E  E Q
||------------------|-----------------|-----------------|----------------------|
||o-----------------|-----------------|-----------------|----------------------|
||o-----2-2---------|-0-0-2-2-0-------|-----2-2-------0-|-(0)-0-0-2-(2)-2-2\---|
||--2-2-----5-2-2-2-|-----------2-0-2-|-2-2-----5-2-2---|----------------------|


  F#  B   A         A   B   A F#E F#  F#  B   A F#  A           E
  E E E E E E E E   E E E E E E E E   E E E E E E E E   +E  E E E +E  E Q
|-----------------|-----------------|-----------------|----------------------||
|-----------------|-----------------|-----------------|---------------------o||
|-----2-2---------|-0-0-2-2-0-------|-----2-2-------0-|-(0)-0-0-------------o||
|-2-2-----5-2-2-2-|-----------2-0-2-|-2-2-----5-2-2---|---------0-(0)-0-0----||


   Verse
    F#            E   F#            E   F#  B  A F#          B  A F#
    E E E E E E E E   E E E E E E E E   E E Q  E E E E   E E Q  E E E E
||------------------|-----------------|----------------|----------------|
||o-----------------|-----------------|----------------|----------------|
||o-----------------|-----------------|-----2--0-------|-----2--0-------|
||--2-2-2-2-2-2-2-0-|-2-2-2-2-2-2-2-0-|-2-2------2-2-2-|-2-2------2-2-2-|


                                     1.
  F#                              E   D    A    E
  E E E E E E E E   E E E E E E E E   Q.   Q.   Q
|-----------------|-----------------|--------------|
|-----------------|-----------------|--------------|
|-----------------|-----------------|-5------------|
|-2-2-2-2-2-2-2-2-|-2-2-2-2-2-2-2-0-|------5----0--|


                       2.
                        D     A     E
  +E  E E E E Q   E     E E E E E E Q    +E  E E E E E E E
|--------------------||----------------|-------------------||
|-------7---7-6\----o||---4-7----------|-------------------||
|-----7---7---------o||-5-------4-7----|-----5-4-2-------4-||
|-(0)-------------2--||-------5-----0--|-(0)-------5-4-2---||


 Chorus
  C#                  F#            E                     A
  +E  E E E E E E E   E E E E E E E E   E E E E E E E E   E E E E E E E E
|-------------------|-----------------|-----------------|------------------|
|-------------------|-----------------|-----------------|------------------|
|-(4)-4-4-4-4-4-4-4-|-----------------|-----------------|------------------|
|-------------------|-2-2-2-2-2-2-2-0-|-0-0-0-0-0-0-0-0-|-5-5-5-5-5-5-5-5--|


  E                 D                 C#                C#            F#
  E E E E E E E E   E E E E E E E E   E E E E E E E E   E E E E E E E E
|-----------------|-----------------|-----------------|------------------||
|-----------------|-----------------|-----------------|------------------||
|-7-7-7-7-7-7-7-7-|-5-5-5-5-5-5-5-5-|-4-4-4-4-4-4-4-4-|-4-5-4-2----------||
|-----------------|-----------------|-----------------|---------5-4-2-2--||


   Bridge
          G#      A         D       G         C#      F#                F#
    E E E E E E E E   E E E E E E E E   E E E E E E E E   E E E E E E E E
||------------------|-----------------|-----------------|-----------------|
||o-----------------|-----------------|-----------------|---------4-------|
||o-------------2---|---2-4-5-5-2-----|---2-3-4-4-------|-------4---4-----|
||--2-4-5-4-4-5---5-|-5-----------5-3-|-3---------1-4-2-|-2-2-5-------5-2-|


        G#      A         D       G
  E E E E E E E E   E E E E E E E E
|-----------------|-----------------|
|-----------------|-----------------|
|-------------2---|---2-4-5-5-2-----|
|-2-4-5-4-4-5---5-|-5-----------5-3-|


                   1.                  2.
        B       C#                F#    C#5
                                        ~
  E E E E E E E E   E E E E E E E E     W
|-----------------|------------------||------||
|-----------------|-----------------o||------||
|---0-1-2-2-2-3-4-|-4-4-2---2-------o||-4----||
|-3---------------|-------5---5-4-2--||------||


 Guitar Solo
          F F#                                    E
  H    Q  E E     E E E E E E E E   E E E E E E E E
|-------------||------------------|-----------------|
|-------------||o-----------------|-----------------|
|-------------||o-----------------|-----------------|
|---------1-2-||--2-2-2-2-2-2-2-2-|-2-2-2-2-2-2-2-0-|


  F#                              E
  E E E E E E E E   E E E E E E E E
|-----------------|-------------------|
|-----------------|-------------------|
|-----------------|-------------------|
|-2-2-2-2-2-2-2-2-|-2-2-2-2-2-2-2-0---|


  C#            B   C#            B   C#
  E E E E E E E E   E E E E E E E E   E E E E E E E E
|-----------------|-----------------|-----------------|
|-----------------|-----------------|-----------------|
|-4-4-4-4-4-4-4-2-|-4-4-4-4-4-4-4-2-|-4-4-4-4-4-4-4-4-|
|-----------------|-----------------|-----------------|


 1.                  2.
  D                   D             C#
  E E E E E E E E     E E E E E E E E
|------------------||-------------------|
|-----------------o||-------------------|
|-5-4-2-----------o||-5-4-2---------4---|
|-------5-4-5-4-2--||-------5-4-5-4-----|


               E     F#           E                  A                F#
  +Q   E E E E E E   Q  E E E E E E   +Q   E E E E E E   Q  E E E E E E
|------------------|----------------|------------------|-----------------|
|------------------|----------------|------------------|-----------------|
|-(4)--4-4-4-4-----|----------------|------------------|-----------------|
|--------------0-0-|-2--2-2-2-2-2-0-|-(0)--0-0-0-0-0-5-|-5--5-5-5-5-5-2--|


                 B                      E            A
  +Q   E E E E E E   +Q   E E E E E E   Q  E E E E E E   +Q   E E E E E E
|------------------|------------------|----------------|-------------------|
|------------------|------------------|----------------|-------------------|
|----------------2-|-(2)--2-2-2-2-2-2-|----------------|-------------------|
|-(2)--2-2-2-2-2---|------------------|-0--0-0-0-0-0-5-|-(5)--5-5-5-5-5-5--|


  D                B                C#                A
  Q  E E E E E E   Q  E E E E E E   E E E E E E E E   Q  E E E E E E
|----------------|----------------|-----------------|-----------------|
|----------------|----------------|-----------------|-----------------|
|-5--5-5-5-5-5-5-|-2--2-2-2-2-2-2-|-4-4-4-4-4-4-4-4-|-----------------|
|----------------|----------------|-----------------|-5--5-5-5-5-5-5--|


  B                A                                   E
  Q  E E E E E E   E E E E E E E E   E E E E E E E E   E E E E E E E E
|----------------|-----------------|-----------------|------------------|
|----------------|-----------------|-----------------|------------------|
|-2--2-2-2-2-2-2-|-----------------|-----------------|------------------|
|----------------|-5-5-5-5-5-5-5-5-|-5-5-5-5-5-5-5-5-|-0-0-0-0-0-0-0-0--|


                    F#                                  C#
  E E E E E E E E   E E E E E E E E   E E E E E E E E   E E E E E E E E
|-----------------|-----------------|-----------------|------------------|
|-----------------|-----------------|-----------------|------------------|
|-----------------|-----------------|-----------------|-4-4-4-4-4-4-4-4--|
|-0-0-0-0-0-0-0-0-|-2-2-2-2-2-2-2-2-|-2-2-2-2-2-2-2-2-|------------------|


                    D                 E                 F#
  E E E E E E E E   E E E E E E E E   E E E E E E E E   E E E E E E E E
|-----------------|-----------------|-----------------|------------------|
|-----------------|-----------------|-----------------|------------------|
|-4-4-4-4-4-4-4-4-|-5-5-5-5-5-5-5-5-|-7-7-7-7-7-7-7-7-|------------------|
|-----------------|-----------------|-----------------|-2-2-2-2-2-2-2-2--|


  G#                D                                   C#
  E E E E E E E E   E E E E E E E E   E E E E E E E E   E E E E E E E E
|-----------------|-----------------|-----------------|------------------|
|-----------------|-----------------|-----------------|------------------|
|-----------------|-5-5-5-5-5-5-5-5-|-5-5-5-5-5-5-5-5-|-4-4-4-4-4-4-4-4--|
|-4-4-4-4-4-4-4-4-|-----------------|-----------------|------------------|


  C#            F#             F#
  E E E E E E E E   +H..       E
|-----------------|--------------|
|-----------------|--------------|
|-4-4-4-4-4-4-4---|--------------|
|---------------2-|-(2)--------2-|


             F#             F#             F#
  +H..       E   +H..       E   +H..       E
|--------------|--------------|----------------||
|--------------|--------------|----------------||
|--------------|--------------|----------------||
|-(2)--------2-|-(2)--------2-|-(2)--------2---||


   Verse
    F#            E   F#            E   F#  B  A F#          B  A F#
    E E E E E E E E   E E E E E E E E   E E Q  E E E E   E E Q  E E E E
||------------------|-----------------|----------------|----------------|
||o-----------------|-----------------|----------------|----------------|
||o-----------------|-----------------|-----2--0-------|-----2--0-------|
||--2-2-2-2-2-2-2-0-|-2-2-2-2-2-2-2-0-|-2-2------2-2-2-|-2-2------2-2-2-|


                                     1.
  F#                              E   D    A    E
  E E E E E E E E   E E E E E E E E   Q.   Q.   Q
|-----------------|-----------------|--------------|
|-----------------|-----------------|--------------|
|-----------------|-----------------|-5------------|
|-2-2-2-2-2-2-2-2-|-2-2-2-2-2-2-2-0-|------5----0--|


                       2.
                        D     A     E
  +E  E E E E Q   E     E E E E E E Q    +E  E E E E E E E
|--------------------||----------------|-------------------||
|-------7---7-6\----o||---4-7----------|-------------------||
|-----7---7---------o||-5-------4-7----|-----5-4-2-------4-||
|-(0)-------------2--||-------5-----0--|-(0)-------5-4-2---||


 Chorus
  C#                F#            E                     A
  E E E E E E E E   E E E E E E E E   E E E E E E E E   E E E E E E E E
|-----------------|-----------------|-----------------|------------------|
|-----------------|-----------------|-----------------|------------------|
|-4-4-4-4-4-4-4-4-|-----------------|-----------------|------------------|
|-----------------|-2-2-2-2-2-2-2-0-|-0-0-0-0-0-0-0-0-|-5-5-5-5-5-5-5-5--|


  E                 D                 C#                C#
  E E E E E E E E   E E E E E E E E   E E E E E E E E   E E E E E E E E
|-----------------|-----------------|-----------------|------------------||
|-----------------|-----------------|-----------------|------------------||
|-7-7-7-7-7-7-7-7-|-5-5-5-5-5-5-5-5-|-4-4-4-4-4-4-4-4-|-4-5-4-2----------||
|-----------------|-----------------|-----------------|---------5-4-2-0--||


   Outro
    F#  B   A F#      A   B   A F#E F#      B   A F#  A           B
   4/4
    E E E E E E E E   E E E E E E E E   E E E E E E E E   +E  E E E +E  E Q
||------------------|-----------------|-----------------|----------------------|
||o-----------------|-----------------|-----------------|----------------------|
||o-----2-2---------|-0-0-2-2-0-------|-----2-2-------0-|-(0)-0-0-2-(2)-2-2\---|
||--2-2-----5-2-2-2-|-----------2-0-2-|-2-2-----5-2-2---|----------------------|


  F#  B   A         A   B   A F#E F#  F#  B   A F#  A           E
  E E E E E E E E   E E E E E E E E   E E E E E E E E   +E  E E E +E  E Q    3x
|-----------------|-----------------|-----------------|----------------------||
|-----------------|-----------------|-----------------|---------------------o||
|-----2-2---------|-0-0-2-2-0-------|-----2-2-------0-|-(0)-0-0-------------o||
|-2-2-----5-2-2-2-|-----------2-0-2-|-2-2-----5-2-2---|---------0-(0)-0-0----||



Duration Legend
---------------
W - whole; H - half; Q - quarter; E - 8th; S - 16th; T - 32nd; X - 64th; a - acciaccatura
+ - note tied to previous; . - note dotted; .. - note double dotted
Uncapitalized letters represent notes that are staccato (1/2 duration)
Irregular groupings are notated above the duration line
Duration letters will always appear directly above the note/fret number it represents the
duration for.  Duration letters with no fret number below them represent rests.  Multi-
bar rests are notated in the form Wxn, where n is the number of bars to rest for.  Low
melody durations appear below the staff

Tablature Legend
----------------
 h   - hammer-on
 p   - pull-off
 b   - bend
 pb  - pre-bend
 r   - bend release (if no number after the r, then release immediately)
 /\  - slide into or out of (from/to "nowhere")
 s   - legato slide
 S   - shift slide
 - natural harmonic
[n]  - artificial harmonic
n(n) - tapped harmonic
 ~   - vibrato
 tr  - trill
 T   - tap
 TP  - trem. picking
 PM  - palm muting
\n/  - tremolo bar dip; n = amount to dip
 \n  - tremolo bar down
 n/  - tremolo bar up
/n\  - tremolo bar inverted dip
 =   - hold bend; also acts as connecting device for hammers/pulls
 <> - volume swell (louder/softer)
 x   - on rhythm slash represents muted slash
 o   - on rhythm slash represents single note slash

Misc Legend
-----------
 |  - bar
||  - double bar
||o - repeat start
o|| - repeat end
*|  - double bar (ending)
 :  - bar (freetime)
 $  - Segno
 &  - Coda
Tempo markers -  = BPM(8/16=s8/s16), where s8 = swing 8ths, s16 = swing 16ths
            
Submit corrections

comments powered by Disqus
↑ Back to top | Rata Blanca Bass for La Cancion Del Guerrero. Lyrics for acoustic guitar and electric guitar. Tablatures and chords are parodies/interpretations of the original songs. You may use it for private study, scholarship, research or language learning purposes only