>
 >
Rakkauslaulu 1

Rakkauslaulu 1 Guitar Tabs

Rasmus - Rakkauslaulu 1 chords, tabs, tablatures, lyrics

Guitar lessons | Add/correct | Request | Top 50 tabs Artists:  A B C D E F G H I J K L M N O P Q R S T U V W X Y Z 0-9

Rakkauslaulu 1 Guitar Tabs – Rasmus

CD, Sheet music, Poster

Do you like Rakkauslaulu 1? Share with your friends now
ChordsTabsTabs v2Tabs v3Ukulele
The Rasmus – Rakkauslaulu
This is my first tab ever but I’m 99% sure it’s right.

Standard tuning. (EADGBE)

Intro:
E|------------------------------------------------------------|
B|------------------------------------------------------------|
G|------------------------------------------------------------|
D|------------------------------------------------------------|
A|------------3-3-3-3---Yy,-kaa,-koo-nyt----------------------|
E|-3-3-3-3-3-3------------------------------------------------|

E|------------------------------------------------------------|
B|------------------------------------------------------------|
G|------------------------------------------------------------|
D|------------------------------------------------------------|
A|--------------------2-3--3-3--3-3-3--5-5--3-3--2-2--0-0-----|
E|-3-33-333--3-33-33------------------------------------------|


Verse 1:
E|------------------------------------------------------------|
B|------------------------------------------------------------|
G|------------------------------------------------------------|
D|------------------------------------------------------------|
A|------------------3-3-333--5-5--3-2-0-----------------------|
E|-3-3-333--3-3-333-------------------------------------------|
   Et oo koskaan sanonut mulle rakas (raakaas...)

E|------------------------------------------------------------|
B|------------------------------------------------------------|
G|------------------------------------------------------------|
D|------------------------------------------------------------|
A|------------------5-5-555--555-3-2-0------------------------|
E|-3-3-333--3-33-333------------------------------------------|
   Et ot koskaan sanonut että sä välität (välität)

E|------------------------------------------------------------|
B|------------------------------------------------------------|
G|------------------------------------------------------------|
D|------------------------------------------------------------|
A|-------------------2-3--3-3--333-3333-3330------------------|
E|-3-3-333--3-33-33-------------------------------------------|
   Sä tiedät että mä tykkään susta (minä tykkään sustaa-aa)

E|------------------------------------------------------------|
B|------------------------------------------------------------|
G|------------------------------------------------------------|
D|------------------------------------------------------------|
A|---------5-5-555--------------------------------------------|
E|-3-3-333---------3-3-333-3----------------------------------|
   Ja että ihan millon vaan sä luokseni tulla saat
 G
Pom, pom, pom


Chorus:
C          D         G                C
Mä luulin löytäneeni oman mussukka-a-ain
               D               G                        C
Sulle korvaan kuiskasin: "Hei Rakkaimpain." (Raa-kkaim-pain)
           D           G              C
Sä sanoit mulle: "Hei Pauri ystävä-ä-äin
         D                 G
Katsoit silmiin ja näytit näin

[stop]


Verse 2:
G                           C                   G
En oo koskaan sanonut sulle pahasti (vaan hyvästi...)
                          D                       G
Et oo koskaan oikein ees riidellytkään (riidellytkään...)
                         C
Mä haluaisin olla sulle enemmän (olla sulle enemmän...)
G                D          G
Tiedäthän että sinusta välitän (välitän...)

Pom, pom, pom


Repeat chorus

Solo:
E|------------------------------------------------------------|
B|------------------------------------------------------------|
G|-----------------------------------------------8------------|
D|-9-999-999--75-75------------5-7-999-999--75-7--------------|
A|------------------------------------------------------------|
E|------------------------------------------------------------|
                   Yea yea yea yeh
E|------------------------------------------------------------|
B|------------------------------------------------------------|
G|------------------------------------------------------------|
D|-999-999--7-5--7-5----5-7--999-99--9-7-7--5-4-5------10-9---|
A|---------------------------------------------------10-------|
E|------------------------------------------------------------|

Pom, pom, pom

Repeat chorus

Repeat chorus


That’s all, it’s pretty easy. I am 99% sure this tab is right, but if you find any 





Comments


Popular Rasmus tabs & chords
Days 1 Chords
Help Me Sing Chords
If You Ever 1 Chords
Last Generation 1 Chords
Chillin At The Grotto Tabs
Guilty 1 Tabs
Open My Eyes Acoustic Intro Tabs
Time To Burn Tabs
Wicked Moments Tabs
Im A Mess Ukulele


Song lyrics



↑ Back to top | Tablatures and chords are parodies/interpretations of the original songs. You may use it for private study, scholarship, research or language learning purposes only
© 2014 AZChords.com Contact us | Privacy policy | DMCA | Add/correct tabs | Request tabs | Top 50 tabs