>
 >
No Fear 2

No Fear 2 Guitar Tabs

Rasmus - No Fear 2 chords, tabs, tablatures, lyrics

Guitar lessons | Add/correct | Request | Top 50 tabs Artists:  A B C D E F G H I J K L M N O P Q R S T U V W X Y Z 0-9

No Fear 2 Guitar Tabs – Rasmus

CD, Sheet music, Poster

Do you like No Fear 2? Share with your friends now
Bass TabsBass Tabs v2ChordsChords v2TabsTabs v2Tabs v3Tabs v4Ukulele
-------------------------------------------------------------------------------
                             No Fear - The Rasmus
-------------------------------------------------------------------------------

Tuning: Standard

I know that there are many other versions of this song, but I think my version is more 
in some ways although I can't be 100% sure.

Please rate, leave comments and e-mail me for suggestions, corrections etc...


Intro:
e|-11--------11--------11-----12--------12--------12-----12--------14--------14----------|
B|----12--------12--------12-----12--------12--------12-----12--------12--------12-------|
G|-------13--------13---------------13--------13---------------11--------11--------------|
D|---------------------------------------------------------------------------------------|
A|---------------------------------------------------------------------------------------|
E|---------------------------------------------------------------------------------------|

e|-14--------14--------14----------------------------------------------------|
B|----14--------14--------14-------------------------------------------------|
G|-------15--------15--------------------------------------------------------|
D|---------------------------------------------------------------------------| whole 2x
A|---------------------------------------------------------------------------|
E|---------------------------------------------------------------------------|

with distortion:
e|---------------------------------------------------------------------------|
B|---------------------------------------------------------------------------|
G|---------------------------4--4-4--4-4-------------------------------------|
D|-6--6-6--6-6--2--2-2--2-2--4--4-4--4-4--4--4-4--4-4------------------------| 2x
A|-6--6-6--6-6--2--2-2--2-2--2--2-2--2-2--4--4-4--4-4------------------------|
E|-4--4-4--4-4--0--0-0--0-0---------------2--2-2--2-2------------------------|

Then:
e|---------------------------------------------------------------------------|
B|---------------------------------------------------------------------------|
G|---------------------------------------------------------------------------|
D|-2-------------------------------------------------------------------------|
A|-2-------------------------------------------------------------------------|
E|-0-----7-4-7--7------------------------------------------------------------|

Verse:
e|------------------------------------------------------------------------------------------|
B|------------------------------------------------------------------------------------------|
G|------------------------------------------------------------------------------------------|
D|-----------------8-8-8-8-8-8-8-8--9-9-9-9-9-9-9-9-------------------6-6-6-6-6-6-6-6-------|
A|-6--6-6-6-6-6-6--6-6-6-6-6-6-6-6--7-7-7-7-7-7-7-7--9-9-9-9-9-9-9-9--4-4-4-4-4-4-4-4-------|
E|-4--4-4-4-4-4-4------------------------------------7-7-7-7-7-7-7-7------------------------|
      x x x x x x  x x x x x x x x  x x x x x x x x  x x x x x x x x  x x x x x x x x

e|---------------------------------------------------------------------------|
B|-----------------------------9---------------------------------------------|
G|-------------------------------8-7~----------------------------------------|
D|-8-8-8-8-8-8-8-8-----------------------------------------------------------|
A|-6-6-6-6-6-6-6-6--6-6-6-6-6------------------------------------------------|
E|------------------4-4-4-4-4------------------------------------------------|
   x x x x x x x x  x x x x x

e|------------------------------------------------------------------------------------------|
B|------------------------------------------------------------------------------------------|
G|------------------------------------------------------------------------------------------|
D|-----------------8-8-8-8-8-8-8-8--9-9-9-9-9-9-9-9-------------------6-6-6-6-6-6-6-6-------|
A|-6--6-6-6-6-6-6--6-6-6-6-6-6-6-6--7-7-7-7-7-7-7-7--9-9-9-9-9-9-9-9--4-4-4-4-4-4-4-4-------|
E|-4--4-4-4-4-4-4------------------------------------7-7-7-7-7-7-7-7------------------------|
      x x x x x x  x x x x x x x x  x x x x x x x x  x x x x x x x x  x x x x x x x x

e|-----------------------------------------------------------------------|
B|-----------------------------------------------------------------------|
G|-----------------------------------------------------------------------|
D|-8-8-8-8-8-8-8-8-------------------------------------------------------|
A|-6-6-6-6-6-6-6-6--6-6-6-6-6-6-6-6--------------------------------------|
E|------------------4-4-4-4-4-4-4-4--7-4-7-------------------------------|
   x x x x x x x x  x x x x x x x x

Chorus:
e|---------------------------------------------------------------------------|
B|---------------------------------------------------------------------------|
G|---------------------------4--4-4--4-4-------------------------------------|
D|-6--6-6--6-6--2--2-2--2-2--4--4-4--4-4--4--4-4--4-4------------------------| 2x
A|-6--6-6--6-6--2--2-2--2-2--2--2-2--2-2--4--4-4--4-4------------------------|
E|-4--4-4--4-4--0--0-0--0-0---------------2--2-2--2-2------------------------|

e|---------------------------------------------------------------------------|
B|---------------------------------------------------------------------------|
G|---------------------------------------------------------------------------|
D|-2-------------------------------------------------------------------------|
A|-2-------------------------------------------------------------------------|
E|-0-----7-4-7--7------------------------------------------------------------|

At the second chorus right before the bridge there's just the E5 without the single notes...

Bridge:
e|---------------------------------------------------------------------------|
B|---------------------------------------------------------------------------|
G|-------------4-4---------------------4-4-----------------------------------|
D|-6-6---2-2---4-4---4-4---6-6---2-2---4-4-----------------------------------|
A|-6-6---2-2---2-2---4-4---6-6---2-2---2-2-----------------------------------|
E|-4-4---0-0---------2-2---4-4---0-0-----------------------------------------|

Solo:
e|---------------------------------18-20-21------18-20-21------18-20-21--------------------|
B|-------------------------------------------/6------------/7------------/6--(6)-6---------|
G|----------------------------------------------------------------------------------8--6--5|
D|-6---8--6-4-3-4--4-3-1-3--3-3-1----------------------------------------------------------|
A|-----------------------------------------------------------------------------------------|
E|-----------------------------------------------------------------------------------------|

Guitar 2 plays during solo:
e|---------------------------------------------------------------------------|
B|---------------------------------------------------------------------------|
G|-3--3-3--3-3---------------6--6-6--6-6-------------------------------------|
D|-3--3-3--3-3--4--4-4--4-4--6--6-6--6-6--6--6-6--6-6------------------------| 2x
A|-1--1-1--1-1--4--4-4--4-4--4--4-4--4-4--6--6-6--6-6------------------------|
E|--------------2--2-2--2-2---------------4--4-4--4-4------------------------|

Chorus "2" (after Solo):
e|---------------------------------------------------------------------------|
B|---------------------------------------------------------------------------|
G|-3--3-3--3-3---------------6--6-6--6-6-------------------------------------|
D|-3--3-3--3-3--4--4-4--4-4--6--6-6--6-6--6--6-6--6-6------------------------| 4x
A|-1--1-1--1-1--4--4-4--4-4--4--4-4--4-4--6--6-6--6-6------------------------|
E|--------------2--2-2--2-2---------------4--4-4--4-4------------------------|

Play more legato during the last 2 turns...

Outro (transcribed for guitar):
e|---------------------------------------------------------------------------|
B|-14--13-11--9--(9)--13-14--13-11--9--(9)-----------------------------------|
G|---------------------------------------------------------------------------|
D|---------------------------------------------------------------------------| 2x
A|---------------------------------------------------------------------------|
E|---------------------------------------------------------------------------|


song structure:

-Intro
-Verse
-Chorus
-Verse
-Chorus
-Bridge
-Solo
-Chorus"2"
-Outro

| /  slide up
| \  slide down
| h  hammer-on
| p  pull-off
| ~  vibrato
| +  harmonic
| x  Mute note
===============================================================================





Comments


Popular Rasmus tabs & chords
Small Chords
Crazy Shit Tabs
Dangerous Kind Tabs
Lucifers Angel Tabs
No Fear 1 Tabs
Not Like The Other Girls Tabs
Shot Tabs
The Fight 1 Tabs
Play Dead Ukulele
Ten Black Roses Ukulele


Song lyrics



↑ Back to top | Tablatures and chords are parodies/interpretations of the original songs. You may use it for private study, scholarship, research or language learning purposes only
© 2014 AZChords.com Contact us | Privacy policy | DMCA | Add/correct tabs | Request tabs | Top 50 tabs