>
 >
F-f-f-falling 1

F-f-f-falling 1 Guitar Tabs

Rasmus - F-f-f-falling 1 chords, tabs, tablatures, lyrics

Guitar lessons | Add/correct | Request | Top 50 tabs Artists:  A B C D E F G H I J K L M N O P Q R S T U V W X Y Z 0-9

F-f-f-falling 1 Guitar Tabs – Rasmus

CD, Sheet music, Poster

Do you like F-f-f-falling 1? Share with your friends now
TabsTabs v2Ukulele
-------------------------------------------------------------------------------
                             F-F-F-Falling - The Rasmus
-------------------------------------------------------------------------------


Tuning: Standard

Intro:
e|--------------------------------------------------------------------------------|
B|--------------------------------------------------------------------------------|
G|-6-6---7--7--9--9--11--11---------------------9--9--6-6---7--7-7--9--9--11--11--|
D|-6-6---7--7--9--9--11--11--7-7--9--9-9--7--7--9--9--6-6---7--7-7--9--9--11--11--|
A|-4-4---5--5--7--7--9---9---7-7--9--9-9--7--7--7--7--4-4---5--5-5--7--7--9---9---|
E|---------------------------5-5--7--7-7--5--5------------------------------------|

e|---------------------------------------------------------------------------|
B|---------------------------------------------------------------------------|
G|--------------------9--9--6-6--7-------------------------------------------|
D|-7-7--9--9-9--7--7--9--9--6-6--7-------------------------------------------|
A|-7-7--9--9-9--7--7--7--7--4-4--5-------------------------------------------|
E|-5-5--7--7-7--5--5------------------5-4-2----------------------------------|

Verse: F#m;E;D;F#m;E;D;F#m;E;D;E  2x


At the end of the 2nd time play this instead of the last E:

e|---------------------------------------------------------------------------|
B|---------------------------------------------------------------------------|
G|-----6---------------------------------------------------------------------|
D|-2---6---------------------------------------------------------------------|
A|-2---4---------------------------------------------------------------------|
E|-0-------------------------------------------------------------------------|

Play the last chord (C#5) 2 times at the end of the 2nd verse...


(Guitar 2 plays: E|-5-4-2--| several times during the verse)


Chorus:
e|-------------------------------------------------------------------------------|
B|-------------------------------------------------------------------------------|
G|----7--7-7--9--9--11--11---------------------9--9--6-6---7--7-7--9--9--11--11--|
D|----7--7-7--9--9--11--11--7-7--9--9-9--7--7--9--9--6-6---7--7-7--9--9--11--11--|
A|----5--5-5--7--7--9---9---7-7--9--9-9--7--7--7--7--4-4---5--5-5--7--7--9---9---|
E|--------------------------5-5--7--7-7--5--5------------------------------------|

e|---------------------------------------------------------------------------|
B|---------------------------------------------------------------------------|
G|--------------------9--9--6-6--7-------------------------------------------|
D|-7-7--9--9-9--7--7--9--9--6-6--7-------------------------------------------|
A|-7-7--9--9-9--7--7--7--7--4-4--5-------------------------------------------|
E|-5-5--7--7-7--5--5------------------5-4-2----------------------------------|

Chorus "2" (before Bridge):
e|-------------------------------------------------------------------------------|
B|-------------------------------------------------------------------------------|
G|----7--7-7--9--9--11--11---------------------9--9--6-6---7--7-7--9--9--11--11--|
D|----7--7-7--9--9--11--11--7-7--9--9-9--7--7--9--9--6-6---7--7-7--9--9--11--11--|
A|----5--5-5--7--7--9---9---7-7--9--9-9--7--7--7--7--4-4---5--5-5--7--7--9---9---|
E|--------------------------5-5--7--7-7--5--5------------------------------------|

e|--------------------------------------------------------------------|
B|--------------------------------------------------------------------|
G|--------------------9--9--9--9-6-6-6-6-6-6-6-6----------------------|
D|-7-7--9--9-9--7--7--9--9--9--9-6-6-6-6-6-6-6-6----------------------|
A|-7-7--9--9-9--7--7--7--7--7--7-4-4-4-4-4-4-4-4----------------------|
E|-5-5--7--7-7--5--5--------------------------------------------------|

Bridge:
e|---------------------------------------------------------------------------|
B|---------------------------------------------------------------------------|
G|-6--7--7-7-7...------------------9--7--7-7-7...----------------------------|
D|-6--7--7-7-7...--5--4--4-4-4...--9--7--7-7-7...--5--4--4-4-4...-4-4-4-4-4--|
A|-4--5--5-5-5...--5--4--4-4-4...--7--5--5-5-5...--5--4--4-4-4...-4-4-4-4-4--|
E|-----------------3--2--2-2-2...------------------3--2--2-2-2...-2-2-2-2-2--|
                                                                  x x x x x

Solo:
e|---------------------------------------------------------------------------|
B|-10-9-10------10-9-10------------------------------------------------------|
G|----------7b-----------6-(\)---------------------------------------------------|
D|---------------------------------------------------------------------------| 2x
A|---------------------------------------------------------------------------|
E|---------------------------------------------------------------------------|
(Play the normal note first (7th fret) and then do a slow bending afterwards.
 At the 6th fret the note becomes lower so you can do a downslide if you want that effect
 although it doesn't really sound like the recording. That's why it is optional.)
 

e|---------------------------------------------------------------------------|
B|---------------------------------------------------------------------------|
G|---------------------------------------------------------------------------|
D|-4-(4)-2-4-----------------------------------------------------------------|
A|-4-(4)-2-4-----------------------------------------------------------------|
E|-2-(2)-0-2-----------------------------------------------------------------|

Bridge "2" (after solo):
e|---------------------------------------------------------------------------|
B|---------------------------------------------------------------------------|
G|---------------------------------------------------------------------------|
D|-4-4--6-6--7-7----------------------3-3------------------------------------| 2x
A|----------------4-4--5-5--4-4--7-7-----------------------------------------|
E|---------------------------------------------------------------------------|
   x x  x x  x x  x x  x x  x x  x x  x x

e|---------------------------------------------------------------------------|
B|---------------------------------------------------------------------------|
G|----------------------------------------6\---------------------------------|
D|-4-4--6-6--7-7-----------------6--6--6--6\---------------------------------|
A|----------------4-4--5-5--4-4--4--4--4--4\---------------------------------|
E|-------------------------------4--4--4-------------------------------------|

Chorus "3":
e|-------------------------------------------------------------------------------|
B|-------------------------------------------------------------------------------|
G|----7--7-7--9--9--11--11---------------------9--9--6-6---7--7-7--9--9--11--11--|
D|----7--7-7--9--9--11--11--7-7--9--9-9--7--7--9--9--6-6---7--7-7--9--9--11--11--|
A|----5--5-5--7--7--9---9---7-7--9--9-9--7--7--7--7--4-4---5--5-5--7--7--9---9---|
E|--------------------------5-5--7--7-7--5--5------------------------------------|

e|--------------------------------------------------------|
B|--------------------------------------------------------|
G|--------------------9-9-9-9-9-9-9--6-6-6-6-6-6----------|
D|-7-7--9--9-9--7--7--9-9-9-9-9-9-9--6-6-6-6-6-6----------|
A|-7-7--9--9-9--7--7--7-7-7-7-7-7-7--4-4-4-4-4-4----------|
E|-5-5--7--7-7--5--5--------------------------------------|
                      x x x x x x x

Ending:
e|---------------------------------------------------------------------------|
B|---------------------------------------------------------------------------|
G|---------------------------------------------------------------------------|
D|-4-(4)-2-4---4-------------------------------------------------------------|
A|-4-(4)-2-4---4-------------------------------------------------------------|
E|-2-(2)-0-2---2-------------------------------------------------------------|


song structure:

-Intro
-Verse
-Chorus
-Verse
-Chorus "2"
-Bridge
-Solo
-Bridge "2"
-Chorus "3"
-Bridge
-Solo
-Ending



| /  slide up
| \  slide down
| h  hammer-on
| p  pull-off
| ~  vibrato
| +  harmonic
| x  Mute note
| b  Bending
===============================================================================





Comments


Popular Rasmus tabs & chords
Back In The Picture Chords
Chill Chords
Funeral Song Chords
Rakkauslaulu Chords
Somewhere 1 Chords
Dont Shut The Door Ukulele
F-f-f-falling Ukulele
Ghost Of Love Ukulele
In The Shadows Ukulele
Live Forever 2 Ukulele


Song lyrics



↑ Back to top | Tablatures and chords are parodies/interpretations of the original songs. You may use it for private study, scholarship, research or language learning purposes only
© 2014 AZChords.com Contact us | Privacy policy | DMCA | Add/correct tabs | Request tabs | Top 50 tabs