» » »

Rasmus, Every Day Tabs (ver.1)

Artists:  A B C D E F G H I J K L M N O P Q R S T U V W X Y Z # 

Every Day Tabs (ver.1)

Rasmus Tabs
 Rating:
4/5 (12 votes)
Every Day lessons Tabs too difficult? Try these video lessons and learn fast
                -------------------------------------------------------------------------------
                             Every Day - The Rasmus
-------------------------------------------------------------------------------


Please rate, leave comments and corrections if you find any mistakes...


Tuning: Standard

Intro: (clean)
e|---------------------------------------------------------------------------|
B|---------------------------------------------------------------------------|
G|------------6---6----7---6-------------------------------------------------|
D|---7---7--7---7----7---7----7-6-7------------------------------------------| 3x
A|-9---9---------------------------------------------------------------------|
E|---------------------------------------------------------------------------|

e|---------------------------------------------------------------------------|
B|---------------------------------------------------------------------------|
G|------------6---6----------------------------------------------------------|
D|---7---7--7---7----7-------------------------------------------------------|
A|-9---9-------------5-------------------------------------------------------|
E|---------------------------------------------------------------------------|

(distorted)
e|---------------------------------------------------------------------------|
B|---------------------------------------------------------------------------|
G|-------------------7-7-7-7-----------7-7-7-7-----------6-6-6-6-6-6-6-6-----|
D|-4-4-4-4--7-7-7-7--7-7-7-7--7-7-7-7--7-7-7-7--7-7-7-7--6-6-6-6-6-6-6-6-----|
A|-4-4-4-4--7-7-7-7--5-5-5-5--7-7-7-7--5-5-5-5--7-7-7-7--4-4-4-4-4-4-4-4-----|
E|-2-2-2-2--5-5-5-5-----------5-5-5-5-----------5-5-5-5----------------------|

e|-------------------------------------------------------------|
B|-------------------------------------------------------------|
G|-------------------7-7-7-7-----------7-7-7-7-----------6-----|
D|-4-4-4-4--7-7-7-7--7-7-7-7--7-7-7-7--7-7-7-7--7-7-7-7--6-----|
A|-4-4-4-4--7-7-7-7--5-5-5-5--7-7-7-7--5-5-5-5--7-7-7-7--4-----|
E|-2-2-2-2--5-5-5-5-----------5-5-5-5-----------5-5-5-5--------|

Verse: (clean)
e|---------------------------------------------------------------------------|
B|---------------------------------------------------------------------------|
G|------------6---6----7---6-------------------------------------------------|
D|---7---7--7---7----7---7----7-6-7------------------------------------------| 3x
A|-9---9---------------------------------------------------------------------|
E|---------------------------------------------------------------------------|

e|---------------------------------------------------------------------------|
B|---------------------------------------------------------------------------|
G|------------6---6----------------------------------------------------------|
D|---7---7--7---7----7-------------------------------------------------------|
A|-9---9-------------5-------------------------------------------------------|
E|---------------------------------------------------------------------------|
(Play the whole verse part 2x)

Chorus: (distorted)
e|---------------------------------------------------------------------------|
B|---------------------------------------------------------------------------|
G|-------------------7-7-7-7-----------7-7-7-7-----------6-6-6-6-6-6-6-6-----|
D|-4-4-4-4--7-7-7-7--7-7-7-7--7-7-7-7--7-7-7-7--7-7-7-7--6-6-6-6-6-6-6-6-----|
A|-4-4-4-4--7-7-7-7--5-5-5-5--7-7-7-7--5-5-5-5--7-7-7-7--4-4-4-4-4-4-4-4-----|
E|-2-2-2-2--5-5-5-5-----------5-5-5-5-----------5-5-5-5----------------------|

e|-------------------------------------------------------------|
B|-------------------------------------------------------------|
G|-------------------7-7-7-7-----------7-7-7-7-----------6-----|
D|-4-4-4-4--7-7-7-7--7-7-7-7--7-7-7-7--7-7-7-7--7-7-7-7--6-----|
A|-4-4-4-4--7-7-7-7--5-5-5-5--7-7-7-7--5-5-5-5--7-7-7-7--4-----|
E|-2-2-2-2--5-5-5-5-----------5-5-5-5-----------5-5-5-5--------|

Bridge:
e|-------------------------------------------------------------|
B|-------------------------------------------------------------|
G|-7-7--9-9--6-6-------7-7--9-9--6-6-------7-7--9-9--6-6-------|
D|-7-7--9-9--6-6--4-4--7-7--9-9--6-6--4-4--7-7--9-9--6-6--4-4--|
A|-5-5--7-7--4-4--4-4--5-5--7-7--4-4--4-4--5-5--7-7--4-4--4-4--|
E|----------------2-2-----------------2-2-----------------2-2--|

e|-------------------------------------------------------------|
B|-------------------------------------------------------------|
G|-7-7-7-7-7-7-7-7--6-6-6-6-6-6-6-6----------------------------|
D|-7-7-7-7-7-7-7-7--6-6-6-6-6-6-6-6--4-------------------------|
A|-5-5-5-5-5-5-5-5--4-4-4-4-4-4-4-4--4-------------------------|
E|-----------------------------------2-------------------------|

"Cello" Part: (clean)
e|-------------------------------------------------------------|
B|-----------------------------------7-9-----------------------|
G|---------------------------9---7-9---------------------------|
D|-7-6-------7-6-------7-6-7-----------------------------------| 2x
A|-----7-4-------7-7-------------------------------------------|
E|-------------------------------------------------------------|

Chorus "2": (distorted)
e|--------------------------------------------------------------------------------|
B|--------------------------------------------------------------------------------|
G|------7-7-7-7-----------6-6-6-6-6-6-6-6------7-7-7-7-----------7-7-7-7----------|
D|-4----7-7-7-7--7-7-7-7--6-6-6-6-6-6-6-6--4---7-7-7-7--7-7-7-7--7-7-7-7--7-7-7-7-|
A|-4----5-5-5-5--7-7-7-7--4-4-4-4-4-4-4-4--4---5-5-5-5--7-7-7-7--5-5-5-5--7-7-7-7-|
E|-2-------------5-5-5-5-------------------2------------5-5-5-5-----------5-5-5-5-|

e|-------------------------|
B|-------------------------|
G|-6-6-6-6-6-6-6-6---------|
D|-6-6-6-6-6-6-6-6---------|
A|-4-4-4-4-4-4-4-4---------|
E|-------------------------|

Chorus "3":
e|---------------------------------------------------------------------------|
B|---------------------------------------------------------------------------|
G|-------------------7-7-7-7-----------7-7-7-7-----------6-6-6-6-6-6-6-6-----|
D|-4-4-4-4--7-7-7-7--7-7-7-7--7-7-7-7--7-7-7-7--7-7-7-7--6-6-6-6-6-6-6-6-----| 2x
A|-4-4-4-4--7-7-7-7--5-5-5-5--7-7-7-7--5-5-5-5--7-7-7-7--4-4-4-4-4-4-4-4-----|
E|-2-2-2-2--5-5-5-5-----------5-5-5-5-----------5-5-5-5----------------------|

Ending:
e|---------------------|
B|---------------------|
G|---------------------|
D|-4-------------------|
A|-4-------------------|
E|-2-------------------|


song structure:
-Intro
-Verse
-Chorus
-Verse
-Chorus
-Bridge
-"Cello" Part
-Chorus "2"
-Chorus "3"
-Ending



| /  slide up
| \  slide down
| h  hammer-on
| p  pull-off
| ~  vibrato
| +  harmonic
| x  Mute note
===============================================================================
            
Submit corrections

comments powered by Disqus
↑ Back to top | Rasmus Tabs for Every Day. Lyrics for acoustic guitar and electric guitar. Tablatures and chords are parodies/interpretations of the original songs. You may use it for private study, scholarship, research or language learning purposes only