» » »

Dead Promises Tabs (ver.2)

Artists:  A B C D E F G H I J K L M N O P Q R S T U V W X Y Z # 

Dead Promises Tabs (ver.2)

Rasmus
Rating:
4/5 (2 votes)

Hard to play? Try these video lessons and learn fast.
                
Great song, great artist, great album.

Intro:
E|------------|
B|------------|
G|------------|
D|4-4-4-4-2~--|x3
A|4-4-4-4-2~--|
E|2-2-2-2-0~--|

After Cellos:
Ray of light...
E|------------|
B|------------|
G|------------|
D|4-4-4-4-2~--|x4
A|4-4-4-4-2~--|
E|2-2-2-2-0~--|

Chorus:

Dead promises...
E|------------|         E|---------|     |     
B|------------|         B|---------|     |      
G|------5-5-5-|         G|---------|     |
D|2-2-2-4-4-4-|         D|x-x-2-2-2|x4   |->x2
A|2-2-2-3-3-3-|         A|x-x-2-2-2|     | 
E|0-0-0-------|         E|x-x-0-0-0|     |

2nd part of Chorus:

The time has come...
E|----------------------|
B|----------------------|
G|------3-3-3-----------|
D|2-2-2-4-4-4-7-7-8-8-7~|
A|2-2-2-4-4-4-7-7-8-8-7~|
E|0-0-0-2-2-2-5-5-6-6-5~|

Verse:
E|------------|
B|------------|
G|------------|
D|4-4-4-4-2~--|x4
A|4-4-4-4-2~--|
E|2-2-2-2-0~--|

Chorus:

Dead promises...
E|------------|         E|---------|     |     
B|------------|         B|---------|     |      
G|------5-5-5-|         G|---------|     |
D|2-2-2-4-4-4-|         D|x-x-2-2-2|x4   |->x2
A|2-2-2-3-3-3-|         A|x-x-2-2-2|     | 
E|0-0-0-------|         E|x-x-0-0-0|     |

2nd part of Chorus:

The time has come...
E|----------------------|
B|----------------------|
G|------3-3-3-----------|
D|2-2-2-4-4-4-7-7-8-8-7~|
A|2-2-2-4-4-4-7-7-8-8-7~|
E|0-0-0-2-2-2-5-5-6-6-5~|

Bridge:
E|------------------------------------------------------------|
B|------------------------------------------------------------|
G|------------------------------------------------------------|
D|------------------------------------------------------------|
A|------------------------------------------------------------|
E|2-2-2-2-2-2-2-2-2-2-2-2-2-2-2-0-0-0-0-0-0-0-0-0-0-0-0-0-0-0-|
 --------------------------P.M.-------------------------------- 

After that:

E|---------|   E|----|   |
B|---------|   B|----|   |
G|---------|   G|----|   |
D|x-x-2-2-2|x3 D|x-2~|   |->x3
A|x-x-2-2-2|   A|x-2~|   |
E|x-x-0-0-0|   E|x-0~|   |

Chorus:

Dead promises...
E|------------|         E|---------|     |     
B|------------|         B|---------|     |      
G|------5-5-5-|         G|---------|     |
D|2-2-2-4-4-4-|         D|x-x-2-2-2|x4   |->x2
A|2-2-2-3-3-3-|         A|x-x-2-2-2|     | 
E|0-0-0-------|         E|x-x-0-0-0|     |

2nd part of Chorus:

The time has come...
E|----------------------|
B|----------------------|
G|------3-3-3-----------|
D|2-2-2-4-4-4-7-7-8-8-7~|
A|2-2-2-4-4-4-7-7-8-8-7~|
E|0-0-0-2-2-2-5-5-6-6-5~|

End:

With cellos:

E|----------------------|
B|----------------------|
G|----------------------|
D|8-7-2~-2-7-8-7~~~~----|
A|8-7-2~-2-7-8-7~~~~----|
E|6-5-0~-0-5-6-5~~~~----|

Easy!
Please Reate!!
            
Hard to play? Try these video lessons and learn fast. | Correct




comments powered by Disqus
↑ Back to top | Tablatures and chords are parodies/interpretations of the original songs. You may use it for private study, scholarship, research or language learning purposes only