» » »

Rascals, Out Of Dreams Bass tabs (ver.1)

Artists:  A B C D E F G H I J K L M N O P Q R S T U V W X Y Z # 

Out Of Dreams Bass tabs (ver.1)

Rascals Tabs
Rating:
3/5 (1 vote)
Out Of Dreams lessons Tabs too difficult? Try these video lessons and learn fast
                G|--------------|
D|--------------|X
A|------7-----7-|16
E|-0-065-0-065--|

G|---------------------------------|
D|---------------------------------|
A|-5(X16)-----7-----7-5(X8)/17(X8)-|
E|-------0-065-0-065---------------|

G|--------------|
D|--------------|X
A|------7-----7-|2
E|-0-065-0-065--|

G|---------------|
D|---------------|X
A|---------------|4
E|-8(X16)-4(X16)-|

G|--------------|
D|--------------|X
A|------7-----7-|22
E|-0-065-0-065--|

G|---------------|
D|---------------|X
A|---------------|4
E|-8(X16)-4(X16)-|

(Pause)

G|--------------|
D|--------------|X
A|-7(X16)-------|2
E|-------7(X16)-|

G|-------------|  G|----|
D|-------------|X D|----|
A|-7(X8)-------|2 A|----|
E|-------7(X8)-|  E|-5∼-|

(Faster)

G|--------------|
D|--------------|X
A|------7-----7-|17
E|-0-065-0-065--|

G|---------------------------------|
D|---------------------------------|
A|-5(X16)-----7-----7-5(X8)/17(X8)-|
E|-------0-065-0-065---------------|

G|---------------------------|
D|---------------------------|
A|------7-5(X16)-----7-55-55-|
E|-0-065--------0-065--------|
            

comments powered by Disqus
↑ Back to top | Rascals Bass for Out Of Dreams. Lyrics for acoustic guitar and electric guitar. Tablatures and chords are parodies/interpretations of the original songs. You may use it for private study, scholarship, research or language learning purposes only