» » »

Rascals, Out Of Dreams Tabs (ver.2)

Artists:  A B C D E F G H I J K L M N O P Q R S T U V W X Y Z # 

Out Of Dreams Tabs (ver.2)

Rascals Tabs
 Rating:
4/5 (4 votes)
Out Of Dreams lessons Tabs too difficult? Try these video lessons and learn fast
1
                Epic Tune 
First Tab;o


e|--------------9-----|
B|--22----------11----|
G|--22xx33-[X4]-10----| 
D|--22xx33------------| 
A|--00xx11------------|
E|--------------------|

"Keep Your Eye On The Killer"
e|--55555555555555--7---5555555555555555-------|
B|--66666666666666--8---6666666666666666-------|
G|--77777777777777--9---7777777777777777-------|
D|--77777777777777--9---7777777777777777-------|  
A|--55555555555555--7---5555555555555555-------|
E|--55555555555555--7---5555555555555555-------|


e|-----------|
B|--22-------|
G|--22xx33---| x2
D|--22xx33---| 
A|--00xx11---|
E|-----------|

Chorus(He Plays The Chorus Many Different Ways)
e|-------------------------------------------|
B|-------------------------------------------|
G|-------------------------------------------| x2
D|10-------6---------------------------------| 
A|10-[X16]-6-[x16]---------------------------|
E|8--------4---------------------------------|

e|--------------9-----|
B|--------------11----|
G|--22xx33-[X4]-10----| 
D|--22xx33------------| 
A|--22xx11------------|
E|--------------------|

"Now Our War Is Over"
e|----------------------------|
B|------10--------------8-----|
G|-9-12----12-7777h9-12---12/-|
D|----------------------------|
A|----------------------------|
E|----------------------------|

"Now Theres Treachery In The Air"
e|----------------------------|
B|--------2-----2------2------|
G|-3-3-3--2-33--2--33--2------| 
D|-3-3-3--2-33--2--33--2------| 
A|-1-1-1--0-11--0--11--0------|
E|----------------------------|


e|-----------|
B|-----------|
G|--22xx33---| x4
D|--22xx33---| 
A|--22xx11---|
E|-----------|

Chorus
e|-------------------------------------------|
B|-------------------------------------------|
G|-------------------------------------------| x2
D|10-------6---------------------------------| 
A|10-[X16]-6-[x16]---------------------------|
E|8--------4---------------------------------|

Listen To The Struming
e|--3-3-33333-----------|
B|--4-4-44444-----------|
G|--5-5-55555-----------|
D|--5-5-55555-----------|
A|--3-3-33333-----------|
E|--3-3-33333--77991010-|

Listen To The Struming
e|--777777777--------------------\/|
B|--888888888--------------------\/|
G|--999999999--------------------\/|
D|--999999999--99999999999---5--5\/|
A|--777777777--99999999999---5--5\/|
E|-------------77777777777---3--3\/|

Played Faster This Time
e|-----------|
B|--22-------|
G|--22xx33---| 
D|--22xx33---| 
A|--00xx11---|
E|-----------|

"Keep Your Eye on The Killa"
Bit Playd After That CBA Wiff It :P
            
Submit corrections

comments powered by Disqus
↑ Back to top | Rascals Tabs for Out Of Dreams. Lyrics for acoustic guitar and electric guitar. 1 Tablatures and chords are parodies/interpretations of the original songs. You may use it for private study, scholarship, research or language learning purposes only