» » »

Rascal Flatts, Here's To You Tabs (ver.2)

Artists:  A B C D E F G H I J K L M N O P Q R S T U V W X Y Z # 

Here's To You Tabs (ver.2)

Rascal Flatts Tabs
Rating:
0/5 (0 votes)
Here's To You lessons Tabs too difficult? Try these video lessons and learn fast
                Tuning: Eb,Ab,Db,Gb,Bb,eb  

x - muff 
v - vibrato  
/ - slide up 
\ - slide down


Intro:                     1. They got
                           2. There's a  
|--------------------------------------|
|--10-x-10-9---9--7--x-7-9----9-9-9----|
|---9-x--9-9---9--7--x-7-9----9-9-9----| 2x
|--------------------------------------|
|--------------------------------------|
|--------------------------------------|     
  
Verse: 
   three in the front and four in the back of a 
   super tall blonde trying to sweet talk her way
|--------------------------------------|
|--10-x-10-9---9--7--x-7-9----9-9-9----|
|---9-x--9-9---9--7--x-7-9----9-9-9----| 
|--------------------------------------|
|--------------------------------------|
|--------------------------------------|     

  Civic.                               Camped     
  backstage.                           There's a
|--------------------------------------|
|--10-x-10-9---9--7--x-7-9----9-9-9----|
|---9-x--9-9---9--7--x-7-9----9-9-9----| 
|--------------------------------------|
|--------------------------------------|
|--------------------------------------|  

   out all night on the sidewalk just to get 
   mom and a dad in the aisle not acting their 
|--------------------------------------|
|--10-x-10-9---9--7--x-7-9----9-9-9----|
|---9-x--9-9---9--7--x-7-9----9-9-9----| 
|--------------------------------------|
|--------------------------------------|
|--------------------------------------|    

   tickets.                     With their
   age.                         There's a  
|--------------------------------------|
|--10-x-10-9---9--7--x-7-9----9-9-9----|
|---9-x--9-9---9--7--x-7-9----9-9-9----| 
|--------------------------------------|
|--------------------------------------|
|--------------------------------------|  
 
   hands on the fence in the back by the buses and the   
   wet Corvette-red lipstick print on a  

|--------------------------------------|
|--10-x-10-9---9--7--x-7-9----9-9-9----|
|---9-x--9-9---9--7--x-7-9----9-9-9----| 
|--------------------------------------|
|--------------------------------------|
|--------------------------------------|  

   limousines.                    
   Coors Light cup.                      And   
|--------------------------------------|
|--10-x-10-9---9--7--x-7-9----9-9-9----|
|---9-x--9-9---9--7--x-7-9----9-9-9----| 
|--------------------------------------|
|--------------------------------------|
|--------------------------------------|  

Just to get a glimpse of a drummer or a singer yeah anything.  And they
   judging by the way she's dancing I'd say she's had enough.   The
|--------------------------------------|
|--10-x-10-9---9--7--x-7-9----9-9-9----|
|---9-x--9-9---9--7--x-7-9----9-9-9----| 
|--------------------------------------|
|--------------------------------------|
|--------------------------------------|  

Prechorus: 
 come    from   miles    around.     For that 
 guitars__      come      alive.     And you
|-----------------------------------|
|-3-------------3-------------------|
|-0-------------2---------2---------| 
|-0-------------0---------2---------|
|-------------------------0---------|
|-3---------------------------------| 
     

  moment when the lights go out.           And they
  make us want to stay all night.
|-------------------------------------|
|-3---------------3-------------------|
|-0---------------2-------------------| 
|-0---------------0---------2---------|
|---------------------------2---------|
|-3-------------------------0---------|    

  scream______________________           It's the

|----------------------------------|
|----------------------------------|
|--2-------------------------------| 
|--2-------------------------------|
|--0-------------------------------|
|----------------------------------|   

Chorus: 
  girls_ in the front row_   singing.      It's the
|----------------------------------|
|----------------------------------|
|----------------------------------| 
|----------------7-----------7-----|
|--7-------------5-----------9-----|
|--5-------------------------0-----|     

   boys with the wheels that bring them.   It's the
|--------------------------------------|
|--------------------------------------|
|--------------------------------------| 
|----------------7-----------7---------|
|--7-------------5-----------9---------|
|--5-------------------------0---------|    

  lighters in the air and you guys up there.     You're the
|-------------------------------------------|
|-------------------------------------------|
|-------------------------------------------| 
|-----------------7-----------7-------11----|
|--7--------------5-----------9--------9----| 
|--5--------------------------0-------------|     

  heart and the soul and the reason we do what we do.     Here's to You!
|-----------------------------------------------------|
|--3----------------------------------------------3---|
|--2----------------------------------------------2---| 
|--0----------------------------------------------0---|
|-----------------------------------------------------|
|-----------------------------------------------------|

Solo: 
|------------------------------------------------------------------|
|------------------------------------------------------------------|
|------------------------------------------------10-10p8---10p8----|
|---------------8b10-b10-b10-10b-r9-r9-r8-8\6-6v--------h10----h10-|
|------------------------------------------------------------------|
|-4-6-8-6vv-8-4----------------------------------------------------|

|-----------------------------|
|-11-11--11-11----11----/9vv--|
|-12-12--12-10----10----------|
|-------------13----13--------|
|-----------------------------|
|-----------------------------|
 repeat the chorus


Outro: 
|-----------------------------|
|-----------------------------|
|-----------------------------|
|-14--12--11--9--7-7----------|
|-12--10---9--7--5-5----------|
|-----------------------------| 

That's it. Enjoy!
            
Submit corrections

comments powered by Disqus
↑ Back to top | Rascal Flatts Tabs for Here's To You. Lyrics for acoustic guitar and electric guitar. Tablatures and chords are parodies/interpretations of the original songs. You may use it for private study, scholarship, research or language learning purposes only