» » »

Fast Cars And Freedom Tabs (ver.1)

Artists:  A B C D E F G H I J K L M N O P Q R S T U V W X Y Z # 

Fast Cars And Freedom Tabs (ver.1)

Rascal Flatts
Rating:
0/5 (0 votes)

Hard to play? Try these video lessons and learn fast.
                This should be right.  It sounds like he's playing on 2 strings so this is what i came up with.

Play with CAPO 1

(notes relative to capo position)

E---------------------------------------------------
B---6--6-5-5-3-3----6--6-5-5-1-1--------------------
G--10-10-9-9-7-7---10-10-9-9-5-5--0-5~--------------
D---------------------------------------------------
A---------------------------------------------------
E---------------------------------------------------



E---------------------------------------------------
B---6--6-5-5-3-3--3/5-3--------------1--------------
G--10-10-9-9-7-7--7/9-7-5--5-2----------------------
D------------------------------5--2h3---2~----------
A---------------------------------------------------
E---------------------------------------------------


The last part is easier like this but i think it sounds
better the other way.
E---------------------------------------------------
B---6--6-5-5-3-3--3/5-3-----------------------------
G--10-10-9-9-7-7--7/9-7-5--5-2-0-----5--------------
D---------------------------------2h3--3-2~---------
A---------------------------------------------------
E---------------------------------------------------



I'm not sure if Joe Don plays this with capo 1 but i tabbed it like this since 
it is a little bit easier with it on and the chords are submitted on here with 
a capo 1.





COMMENTS/CORRECTIONS are appreciated.

Thanx to rooster for that one part at the end!!!
            
Hard to play? Try these video lessons and learn fast. | Correct




comments powered by Disqus
↑ Back to top | Tablatures and chords are parodies/interpretations of the original songs. You may use it for private study, scholarship, research or language learning purposes only