» » »

Rascal Flatts, Ellsworth Tabs (ver.2)

Artists:  A B C D E F G H I J K L M N O P Q R S T U V W X Y Z # 

Ellsworth Tabs (ver.2)

Rascal Flatts Tabs
Rating:
0/5 (0 votes)
Ellsworth lessons Tabs too difficult? Try these video lessons and learn fast
                Rascal Flatts

Capo 3, all positions relative to capo

Intro


--------------------------------------------------------------------
-7-5-----------------7-5-----------------7-5------------------------
------7-6-7----6-7-------7-6-7----6-7--------7-6-7----6-7-----------
-------------7-----7------------7------7------------7-----5-4-7-4h5-
--------------------------------------------------------------------
--------------------------------------------------------------------

D                           A/C#
Grandma burned the biscuits, nearly took the house down with it
Cadd9                         G
Now she's in assisted living, we all knew that day would come
D                                 A/C#
We knew she was too gone to drive, the day she parked on I-65
Cadd9                            G
Found her on the shoulder cryin', she didn't know where she was

(Pre-echo)
Cadd9                    Bm
It's like her mind just quit
                  Em7                          D        G
Oh, but bring up grandpa, it's like someone flipped a switch


(Chorus)
   D
A front porch light and a blue Desoto
Em7                            G
Couple of straws in a Coca-Cola
                             D - A
You can see it all going down
  D
A handsome boy in army green
Em7
Tear on his face, down on a knee
G
Shaky voice, a diamond ring
       Asus4            A
She'll put you in that town
  Bm                 A
Tomorrow she won't remember
               Esus-E
What she did today
                        G   D      Em7
But just ask her about Ellsworth, Kansas 1948


------------------------------------------2
-7-5-----------------7-5----------5h7p5-0-3
-----7-6-7----6-7--------7-6-7------------2
------------7------7----------------------0
-------------------------------------------
-------------------------------------------


She takes out his medals, a cigar box of letters
Sits and scatters pictures, black and whites of days gone by

(pre-echo)
We started losing her when she lost him
But to hear her carry on, you'd swear she's seventeen again

(Chorus)
Football games and leaves are cracklin'
Walking her home in his letter jacket
You could see it all going down
A perfect night on a front porch glider
Sayin' goodnight for the next three hours
Her tired eyes go wide and bright
When she talks about that town
Tomorrow she won't remember what she did today
But just ask her about Ellsworth, Kansas 1948


--------------------10-12-----10---10—9\7-9—-7\5-7--7-5-3-5-10-14-12-
-8-10-12--8-10---10--------12----------------------------------------
---------------------------------------------------------------------
---------------------------------------------------------------------
---------------------------------------------------------------------
---------------------------------------------------------------------

           D
While the world is spinning all around her
Em7                             G
Sharin' a sundae at the counter

He's goin' on and on about her
     Asus4                   A
Bet she's right there right now
 Bm                   A                    Esus-E
Tomorrow she won't remember what she did today
                        G   D      Em7
But just ask her about Ellsworth, Kansas 1948


---------------------------------------------------------------2-
-7-5-----------------7-5-----------------7-5-------------------3-
------7-6-7----6-7-------7-6-7----6-7--------7-6-7---7-5-2--0--2-
-------------7-----7------------7------7-----------------------0-
-----------------------------------------------------------------
-----------------------------------------------------------------



Palamin0 did a great job on the chords, so I used the same ones. Thanks palamin0.

Also, this is my first tab. Comments are welcome.
            
Submit corrections

comments powered by Disqus
↑ Back to top | Rascal Flatts Tabs for Ellsworth. Lyrics for acoustic guitar and electric guitar. Tablatures and chords are parodies/interpretations of the original songs. You may use it for private study, scholarship, research or language learning purposes only