» » »

I Will Go Sailing No More Tabs (ver.1)

Artists:  A B C D E F G H I J K L M N O P Q R S T U V W X Y Z # 

I Will Go Sailing No More Tabs (ver.1)

Randy Newman
Rating:
5/5 (1 vote)

Hard to play? Try these video lessons and learn fast.
                -----------------------------------------------------------------------------
-----------------------------------------------------------------------------

Tuning:Standard

Intro

e|---------------------------------------------------0~--0-0~-|
B|-------------------------------3~-3----------------1-3------|
G|-4-2-4-4-2-4-4-2-4-4-2-4-4-2-4------4~-------------0~-------|
D|-0~--------------------------------------5-3-5-5~-----------|
A|-----------------------------------------6~--------3~-------|
E|-3~---------------------------------------------------------|

Verse

G              D
Out among the stars I sail
C               Dsus2   D
Way beyond the moon
G            D
In my silver ship I sail
   C                    Dsus2    D
A dream that ended too soon

C             A7(add13)
Now I know exactly
      G            D/F#      Em     D    C   A7
Who I am, and what I'm here for
    G            D        G         
And I will go sailing no more

G                  D
All the things I thought I'd be,
C                         Dsus2   D
All the brave things I'd done
G                D
Vanished like a snowflake,
          C            Dsus4     D
With the rising of the sun
C              A7(add13)
Never more to sail my ship,
      G          D/F#     Em     D     C     A7
Where no man has gone before
    G            D        G
And I will go sailing no more

Bridge

G    Eb

    Ab       Eb      Ab
But no, it can't be true
        Bb               Eb
I could fly if I wanted to
        B           Gb
like a bird in the sky, 
      Db          Ab
If I leap I could fly
         Eb
Why I'd fly

e|-------------------------3-1-3-3-1-3-3-1-3-3-1-3-5-3-5-5-3-5-5-3-5-5-3-5--|
B|-8-6-8-8-6-8-8-6-8-8-6-8--------------------------------------------------|
G|-------------------------0------------------------------------------------|
D|-8------------------------------------------------------------------------|
A|-6-----------------------3------------------------------------------------|
E|-------------------------------------------------1------------------------|

e|-5-4-5-------------------|--------|---------------------------------------|
B|-------6-5-6-------------|--------|---------------------------------------|
G|-------------6-5-6-------|-repeat-|-3~------------------------------------|
D|-------------------7-6-7-|--------|-2~------------------------------------|
A|-------------------------|--------|-3~------------------------------------|
E|-------------------------|--------|---------------------------------------|

Bb7     F           C     C7  F
Clearly I will go sailing no more

Outro

e|--------------------------------------------------------------------------|
B|--------------------------------------------------------------------------|
G|-2------------------------------------------------------------------------|
D|-3------------------------------------------------------------------------|
A|-3---1---5---8------------------------------------------------------------|
E|-1---3---6---8------------------------------------------------------------|
            
Hard to play? Try these video lessons and learn fast. | Correct




comments powered by Disqus
↑ Back to top | Tablatures and chords are parodies/interpretations of the original songs. You may use it for private study, scholarship, research or language learning purposes only