>
 >
It's A Jungle Out There

It's A Jungle Out There Guitar Tabs

Randy Newman - It's A Jungle Out There chords, tabs, tablatures, lyrics

Guitar lessons | Add/correct | Request | Top 50 tabs Artists:  A B C D E F G H I J K L M N O P Q R S T U V W X Y Z 0-9

It's A Jungle Out There Guitar Tabs – Randy Newman

CD, Sheet music, Poster

Do you like It's A Jungle Out There? Share with your friends now
ChordsTabs
-------------------------------------------------------------------------------
         It’s A Jungle Out There (Theme from “Monk”) - Randy Newman
-------------------------------------------------------------------------------

Tuning: standard

     Cm           G7/D            Cm/Eb        G7/D             
E||----------------------------|--3--------------------3-------|
B||--4------------6------------|-------4-------6------------6--|
G||-------5------------7-------|---------------7---------------|
D||----------5------------5----|----------5--------------------|
A||--3------------5------------|--6---------------5------------|
E||----------------------------|-------------------------------|
                                                       It's a 

    Cm                                                     
e|--3---------------------|-------3----3----------3-------|
B|--4----6--4----4--------|-------4----4-------4-------4--|
G|---------------5--------|-------5----5------------------|
D|---------------5--------|-------------------------------|
A|--3---------------------|--3----------------------------|
E|---------------3--------|---------------3---------------|
    jun- gle out there            Dis- ord    -er and con- 


    D7                                                     
e|---------------------------|----------------------------|
B|--7----6--7----6--7--------|-------7----7-------7-------|
G|--5---------------5--------|-------8----7-------5-------|
D|--7------------------------|--0--------------------7----|
A|--5------------------------|---------------0------------|
E|------------------5--------|----------------------------|
    fu-sion eve- ry-where      

    Fm/Ab                      G7                G/B              
e|-------3------4-------3---------|---------------------------8--|
B|--6--------------------------6--|-----------9--8---------------|
G|--5--------------------------4--|--------------7----10---------|
D|-----------------------------3--|------------------------------|
A|-----------------5--------------|------------------------------|
E|--4-----------------------------|--3-----------7---------------|
    No one      seems  to      care         Well I    do     Hey,

    Cm          Dm7           D#dim    C7/E             
e|-------------------------|------------------8--------|
B|--8-----------6----------|--7--------8-----------11--|
G|--8----8------5----------|--5--------9---------------|
D|--------------7----------|--7--------8---------------|
A|--------------5----------|--6--------7---------------|
E|--8----------------------|---------------------------|
        who's   in            charge   here?  It's a 


    Fm                                      Gm                      
e|--8---------------------------|----------------------------------|
B|--9----11--9----9---------11--|-------9-------11-------9---------|
G|----------------10--------12--|-------10------12-------10--------|
D|----------------10------------|----------------------------10----|
A|--8---------------------------|--8-------------------------------|
E|----------------8-------------|-------------------8--------------|
   jun-  gle out there

    G7                                              G7b9/B     G5            
e|------------------------------------------|-------------------------------|
B|--12----11--12----11--12--11--12------11--|--12------------------------9--|
G|--10------------------10------------------|--10---13---13----12-----------|
D|--12------------------12------------------|--12---15---15----12-----------|
A|--10--------------------------------------|--10---14---14--------10-------|
E|----------------------10------------------|-------------------------------|
    Poi-son  in     the ve-ry   air     we     breathe                  D'ya

    F#7/C#              Gdim                   C7        A#dim             
e|------------------------------------------|------------9--8-------------|
B|--11----10--11----10--11----10--11----10--|--11--------8-------11-------|
G|--9-------------------9-------------------|--9---------9----------------|
D|--11------------------11------------------|--8---------8----------------|
A|----------------------10------------------|------------------------7----|
E|--9---------------------------------------|--8--------------------------|
  know what's in    the wa-  ter that you     drink?     Well I do,  and 

    Fm          Gm7            G#dim     F7/A         
e|--------------------------|------------------------|
B|--9-----------11----------|--12--------13----------|
G|--10----------10----------|--10--------14----------|
D|--10----------12----------|--12--------13----------|
A|--8-----------10----------|--11--------12----------|
E|--------------------------|------------------------|
    it's         a-            ma-        zing

    Bbm                                  Edim                                
e|--9--8--9--8--9---------------------|--9--8--9--8--9----------------------|
B|--6---------------------6-----6--6--|--8------------------------11----11--|
G|--6------------------------6--------|-------------------------------------|
D|------------------------------------|--8---------------------8------------|
A|-------------------8----------------|--7----------------7-----------------|
E|--6---------------------------------|-------------------------------------|
 Peo-ple think I'm cra-   zy, 'cause I  wor-ry all the time       If    you

    Fm                                           Gm                         
e|--8-----8--8----8--8----------------8--|---------------------------------|
B|--9----------------8-----11--9--11-----|-----------11-------9--------11--|
G|--10---------------9-------------------|-----------12-------10-----------|
D|-------------------8-------------------|---------------------------------|
A|--8----------------10------------------|--8---------------------8--------|
E|-------------------8-------------------|---------------8-----------------|
   paid at-ten-tion, you'd be wor-ried to                              You

    G                   Gmaj7/D                G7                        G7     
e|------------------------------------------|-------13----11-------13--10----|
B|--12----11--12----11--12----11--12----11--|--12----------------------12----|
G|--12------------------11------------------|--10----------------------10----|
D|------------------------------------------|--------------------------------|
A|--10--------------------------------------|--10----------------------10----|
E|----------------------10------------------|-----------------10-------------|
    bet-  ter pay  at-ten-  tion  or this   world we    love      so much 

            C           Bb/D     Ab/Eb  C7/E                      
e|----------8--------|--6--------4---------|---------------------|
B|----------8--------|--6--------4------8--|---------------------|
G|----------9--------|--7--------5------9--|---------------------|
D|-------------------|------------------8--|---------------------|
A|-------------------|--5--------6------7--|---------------------|
E|----------8--------|---------------------|------------8--8--8--|
            Might       just     kill   you            I could be

    C7/5+       C9-                                    
e|--------------9--9--9--|--9----8------------8-------|
B|--9----8------8--8--8--|--8----8--------11------11--|
G|--9----9------9--9--9--|--9----9--------------------|
D|--8----8------8--8--8--|--8----8--------------------|
A|-----------------------|----------------------------|
E|-----------------------|----------------------------|
   wrong now,  but I don't think so!   'Cause there's a


    Fm                          C#7M           C              
e|--8------------------------|-----------------8-------------|
B|--9-----11--9--------------|-------13----13--8----11--9----|
G|--10-------------10--------|-------10----10--9-------------|
D|-----------------10--------|-------------------------------|
A|--8------------------------|-------------------------------|
E|-----------------8---------|--9--------------8-------------|
    jun- gle out there.              It's  a  jun-  gle out 

    Fm   Gm   Ab   Gm   Fm                         
e|--1----3----4----3----1--|---------------------||
B|-------------------------|---------------------||
G|--1----3----5----3----1--|---------------------||
D|-------------------------|---------------------||
A|-------------------------|---------------------||
E|--1----3----4----3----1--|----------1----------||
  there





Comments


Popular Randy Newman tabs & chords
I Think Its Gonna Rain Today Chords
My Little Buttercup Chords
Naked Man Chords
Old Man Chords
Short People Chords
Something Special 1 Chords
Texas Girl At The Funeral Of Her Father Chords
Have You Seen My Baby Ukulele
I Love To See You Smile Ukulele
The Great Nations Of Europe Ukulele


Song lyrics



↑ Back to top | Tablatures and chords are parodies/interpretations of the original songs. You may use it for private study, scholarship, research or language learning purposes only
© 2014 AZChords.com Contact us | Privacy policy | DMCA | Add/correct tabs | Request tabs | Top 50 tabs